Diosito, Tronic (tablatura)

Autor: Anónimo | 20767 visualizaciones



INTRO

|---------------10----------------10----------------10--9--6----|
|-----7--8--------------7--8-------------7--8----------------10-|
|---7--7---7--7-------7--7---7--7-------7--7---7--7-------------|
|---------------------------------------------------------------|
|---------------------------------------------------------------|
|---------------------------------------------------------------|


A)
  |-----------------------|
  |-----------------------|
  |--7----12--7-----12--7-|
  |--7----12--7-----12--7-|
  |--5----10--5-----10--5-|
  |-----------------------|
   D5   G5  D5    G5  D5

       D5                   G5  D5                           G5  D5
  Alimentar a los gatos muertos, nuestra vecina si que esta para eso

  |-------------------------|
  |-------------------------|
  |--7-----------5---7------|
  |--7---7---5---5---7---7--|
  |--5---7---5---3---5---7--|
  |------5---3-----------5--|
  D5  A5   G5  C5  D5  A5

         D5       A5        G5          C5    D5      A5
  el campo a la ciudad todo van a tiritar igual


CORO
              D5 G5              E5     A5
  vamos a celebrar la noche ya llego amigos
         B5             G5        C5
  la marihuana hasta diosito que fumar.

A)
       D5                   G5  D5                        G5  D5
  esta mania ya no tiene forma nuestra comida la hace tia olga
        D5       A5        G5          C5    D5      A5
  el campo a la ciudad todos vana tiritar igual

CORO
              D5 G5              E5     A5
  vamos a celebrar la noche ya llego amigos
         B5             G5        C5        A5
  la marihuana hasta diosito que fumar.
              D5 G5              E5     A5
  vamos a celebrar el diablo ya llego amigos
         B5             G5            C5        A5
  se vino con el ron que diosito nos dejo
              D5 G5              E5     A5
  vamos a celebrar la noche ya llego amigos
         B5             G5        C5        A5
  la marihuana hasta diosito que fumar.
             D5 G5              E5     A5
  vamos a celebrar el diablo ya llego amigos
         B5             G5        C5        A5       D5
  se vino con el ron que diosito nos dejo ohh ohhh

PUNTEO

|-------------10-10-9--6--------------------10-10-9--6----|
|---7--8-----------------10------7--8-----------------10--|
|-7--7---7--7------------------7--7---7--7----------------|
|---------------------------------------------------------|
|---------------------------------------------------------|
|---------------------------------------------------------|

|-------------10-10-9--6-----------------------------------|
|---7--8-----------------10------8/7-8/7-8/7--8-7-10-8-7---|
|-7--7---7--7--------------------------------------------7-|
|----------------------------------------------------------|
|----------------------------------------------------------|
|----------------------------------------------------------|


|-------------10-10-9--6--------------------10-10-9--6----|
|---7--8-----------------10------7--8-----------------10--|
|-7--7---7--7------------------7--7---7--7----------------|
|---------------------------------------------------------|
|---------------------------------------------------------|
|---------------------------------------------------------|

|-------------10-10-9--6-----------------------------------|
|---7--8-----------------10------8/7-8/7-8/7--8--10-12-14--|
|-7--7---7--7----------------------------------------------|
|----------------------------------------------------------|
|----------------------------------------------------------|
|----------------------------------------------------------|

CORO
              D5 G5              E5     A5
  vamos a celebrar la noche ya llego amigos
         B5             G5        C5        A5
  la marihuana hasta diosito que fumar.
              D5 G5              E5     A5
  vamos a celebrar el diablo ya llego amigos
         B5             G5            C5        A5
  se vino con el ron que diosito nos dejo
              D5 G5              E5     A5
  vamos a celebrar la noche ya llego amigos
         B5             G5        C5        A5
  la marihuana hasta diosito que fumar.
             D5 G5              E5     A5
  vamos a celebrar el diablo ya llego amigos
         B5             G5        C5        A5       D5
  se vino con el ron que diosito nos dejo ohh ohhh

OJALA KE LEZ GUSTE





Calificar esta versión:
Aviso: Este fichero es trabajo propio de su transcriptor y representa su interpretación personal de la canción. El material contenido en esta página es para exclusivo uso privado, por lo que se prohibe su reproducción o retransmisión, así como su uso para fines comerciales.
Más versiones de Diosito, Tronic
Diosito
acordes
Diosito
tablatura
Descubre más canciones de Tronic