Cuchibarbie, Tronic (tablatura)

Autor: Anónimo | 25335 visualizaciones



Holaaaa :D mi tercer aporte en laCuerda.net =)
Por favor califíquenla..!!, =)
Tab:

Intro:
|----------------------------------------------------------------|
|----------------------------------------------------------------|
|----------------------------------------------------------------|
|----------2-------------------------------3-------------5-------|
|3-3---3-5---5-3-0-0---0-3-0-2-3-5-5---5-5---5-0-----------0-2-5-|
|------------------------------------------------3-3---3---------|


|------------------------------------------------------------------------|
|------------------------------------------------------------------------|
|------------------------------------------------------------------------|
|----------2-------------------------------3-------------------5-3-------|
|3-3---3-5---5-3-0-0---0-3-0-2-3-5-5---5-5---5-0-------------------0-2-5-|
|------------------------------------------------3-3---333---3-----------|

Verso:

|-----------------------------------------|
|-----------------------------------------|
|5-555-5/9-10-12--10-101010-12-10-(9)-(7)-|(x2)
|x-xxx-x x-x--x----x--x-x-x--x--x-(x)-(x)-|
|3-333-3/7-8--10---8--8-8-8-10--8-(7)-(5)-|
|-----------------------------------------|

Precoro:

|--3--3~----|--5--5~----|--5--5~----|--5--5~----|--7--7~----|--7--7~----|
|-5-5----5--|-5-5----5--|-6-6----6--|-6-6----6--|-8-8----8--|-8-8----8--|
|5---5------|5---5------|5---5------|5---5------|7---7------|7---7------|
|-----------|-----------|-----------|-----------|-----------|-----------|
|-----------|-----------|-----------|-----------|-----------|-----------|
|-----------|-----------|-----------|-----------|-----------|-----------|
(Break)
|55553333---------------------|---------|
|--------666655553~3333333----|---------|
|-----------------------------|---------|
|-----------------------------|---------|
|-----------------------------|---0-2-5-|
|-----------------------------|3--------|

Coro:

DO                      MIm
Escucha cuchibarbie por favor
LAm
no tengo camioneta
FA                  REm
tampoco tengo casa en la playa
    SOL
ni en pucon...
(Luego los acordes son los mismos).

SOL FA MIm REm (Break)

Verso*
Pre-Coro*
Coro*
Solo:
|-----------------------------------------------------------------------|
|8---8---8----8-8-8-8-10-8---------------------------------------------8|
|-9---9---9---------------10-9~~~-10-10-10-10-10-10-9-9-7-7----7--9-10--|
|-----------------------------------------------------------10----------|
|-----------------------------------------------------------------------|
|-----------------------------------------------------------------------|

|8-8-8-8-7-7-7-7-----------------------------------|
|-----------------10-10-10-10-8-8-8-8-10-8---------|
|------------------------------------------10-9~~~-|
|--------------------------------------------------|
|--------------------------------------------------|
|--------------------------------------------------|

|8-8-8-8-8-8-7-7---------------7-8-10-12-13-12---|
|-----------------10-10--8-10------------------12|
|------------------------------------------------|
|------------------------------------------------|
|------------------------------------------------|
|------------------------------------------------|

FA                  SOL                 DO
Si quieres que este viernes pisemos el altar
         LAm                             FA
tendrás que mantenerme, no tengo ni para el pan

Repite "FA SOL DO LAm", Termina con FA-SOL.

Repite Intro*

En el Coro la otra guitarra hace:
|------------------------------------|
|13(x8)-12(x8)-10(x8)-10(x16)-12(x16)|
|12-----12-----9------10------12-----|
|------------------------------------|
|------------------------------------|
|------------------------------------|

Fin :)
Saaaludos!
Si quieres visita mi canal en youtube :D
www.youtube.com/boriisrockx
cualquier duda, consulta, acotación :) a mi canal o
a mi correo =) o twitter/boriisrock92 :D ^^

[email protected] :)

Cambio y fuera!





Calificar esta versión:
Aviso: Este fichero es trabajo propio de su transcriptor y representa su interpretación personal de la canción. El material contenido en esta página es para exclusivo uso privado, por lo que se prohibe su reproducción o retransmisión, así como su uso para fines comerciales.
Más versiones de Cuchibarbie, Tronic
Cuchibarbie
acordes
Cuchibarbie
tablatura
Descubre más canciones de Tronic