Brazil, Tronic (tablatura)

Autor: cirolonga | 32209 visualizaciones



INTRO:
E|----------------------------55555-8-6--6-5-3--|
B|-6-------------6655---------------------------|
G|-----0-2--0-7----------0-2--------------------|
R|----------------------------------------------|
A|----------------------------------------------|
E|----------------------------------------------|

KARLA KIERE IR A BRASIL...
E|---------------------------------------------|
B|---------------------------------------------|
G|-7-7-7-7--12-12-12-12--5-5-5-5--14-14-14-14--|
R|-7-7-7-7--12-12-12-12--5-5-5-5--14-14-14-14--|
A|-5-5-5-5--10-10-10-10--3-3-3-3--12-12-12-12--|
E|---------------------------------------------|

VAILAN POR LAS NOCHES...
E|-------------------------------------------|
B|-------------------------------------------|
G|-7-7-7-7--12-12-12-12--5-5-5-5-5-5-5-5-----|
R|-7-7-7-7--12-12-12-12--5-5-5-5-5-5-5-5-----|
A|-5-5-5-5--10-10-10-10--3-3-3-3-3-3-3-3-----|
E|-------------------------------------------

PEDRO TRABAJA HASTA MORIR...
E|---------------------------------------------|
B|---------------------------------------------|
G|-7-7-7-7--12-12-12-12--5-5-5-5--14-14-14-14--|
R|-7-7-7-7--12-12-12-12--5-5-5-5--14-14-14-14--|
A|-5-5-5-5--10-10-10-10--3-3-3-3--12-12-12-12--|
E|---------------------------------------------|

PERO SU SEÑORA LO ENGAÑAKON SU TIO MARTIN
E|-------------------------------------------|
B|-------------------------------------------|
G|-7-7-7-7--12-12-12-12--5-5-5-5-5-5-5-5-----|
R|-7-7-7-7--12-12-12-12--5-5-5-5-5-5-5-5-----|
A|-5-5-5-5--10-10-10-10--3-3-3-3-3-3-3-3-----|
E|-------------------------------------------|

A VECES LA VIDA ES ASI...
E|-----------------------------------------------------|
B|-----------------------------------------------------|
G|--3-3-3-3--5-5-5-5-----------7-7-5-5--3-3-3-3--5-55--|
R|--3-3-3-3--5-5-5-5--7-7-7-7--7-7-5-5--3-3-3-3--5-55--|
A|--1-1-1-1--3-3-3-3--7-7-7-7--5-5-3-3--1-1-1-1--3-33--|
E|--------------------5-5-5-5--------------------------|

KORO:PORKE DOCTOR
E|---------------------------------------|
B|---------------------------------------|
G|--77777777----------55555555-----------|
R|--77777777-55555555-55555555-77777777--|
A|--55555555-55555555-33333333-77777777--|
E|-----------33333333----------55555555--|

TRATO DE ENTERDER...
E|---------------------------------------|
B|---------------------------------------|
G|--77777777----------5555555555555555---|
R|--77777777-55555555-5555555555555555---|
A|--55555555-55555555-3333333333333333---|
E|-----------33333333--------------------|

KISAS MORIR
E|---------------------------------------|
B|---------------------------------------|
G|--77777777----------55555555-----------|
R|--77777777-55555555-55555555-77777777--|
A|--55555555-55555555-33333333-77777777--|
E|-----------33333333----------55555555--|

O SERA OTRO PASO...
E|---------------------------------------|
B|---------------------------------------|
G|--77777777----------5555555555555555---|
R|--77777777-55555555-5555555555555555---|
A|--55555555-55555555-3333333333333333---|
E|-----------33333333--------------------|

TANTO TIEMPO SIN DORMIR
E|---------------------------------------------|
B|---------------------------------------------|
G|-7-7-7-7--12-12-12-12--5-5-5-5--14-14-14-14--|
R|-7-7-7-7--12-12-12-12--5-5-5-5--14-14-14-14--|
A|-5-5-5-5--10-10-10-10--3-3-3-3--12-12-12-12--|
E|---------------------------------------------|

SI ESTO SIGUE ASI...
E|-------------------------------------------|
B|-------------------------------------------|
G|-7-7-7-7--12-12-12-12--5-5-5-5-5-5-5-5-----|
R|-7-7-7-7--12-12-12-12--5-5-5-5-5-5-5-5-----|
A|-5-5-5-5--10-10-10-10--3-3-3-3-3-3-3-3-----|
E|-------------------------------------------|

A VECES LA VIDA ES ASI...
E|-----------------------------------------------------|
B|-----------------------------------------------------|
G|--3-3-3-3--5-5-5-5-----------7-7-5-5--3-3-3-3--5-55--|
R|--3-3-3-3--5-5-5-5--7-7-7-7--7-7-5-5--3-3-3-3--5-55--|
A|--1-1-1-1--3-3-3-3--7-7-7-7--5-5-3-3--1-1-1-1--3-33--|
E|--------------------5-5-5-5--------------------------|

KORO:PORKE DOCTOR
E|---------------------------------------|
B|---------------------------------------|
G|--77777777----------55555555-----------|
R|--77777777-55555555-55555555-77777777--|
A|--55555555-55555555-33333333-77777777--|
E|-----------33333333----------55555555--|

TRATO DE ENTERDER...
E|---------------------------------------|
B|---------------------------------------|
G|--77777777----------5555555555555555---|
R|--77777777-55555555-5555555555555555---|
A|--55555555-55555555-3333333333333333---|
E|-----------33333333--------------------|

KISAS MORIR
E|---------------------------------------|
B|---------------------------------------|
G|--77777777----------55555555-----------|
R|--77777777-55555555-55555555-77777777--|
A|--55555555-55555555-33333333-77777777--|
E|-----------33333333----------55555555--|

O SERA OTRO PASO...
E|-------------------------------------------|
B|-------------------------------------------|
G|--77777777----------5555555555555555--4-4--|
R|--77777777-55555555-5555555555555555--4-4--|
A|--55555555-55555555-3333333333333333--2-2--|
E|-----------33333333------------------------|

A VECES LA VIDA ES ASI...
E|------------------------------------------------------|
B|------------------------------------------------------|
G|--3333333-55555555----------7777-5555-3333333-555555--|
R|--3333333-55555555-77777777-7777-5555-3333333-555555--|
A|--1111111-33333333-77777777-5555-3333-1111111-333333--|
E|-------------------55555555---------------------------|


Solo:
E|----------------------------------------------------------------|
B|----------------------------------------------------------------|
G|-10-9-7-5--3-2-0--9-7-5-5--3-2-----------5--7-5-3--3-2--3--5--7-|
R|--------------------------------3-5-7--3------------------------|
A|----------------------------------------------------------------|
E|----------------------------------------------------------------|

E|-------------------------------------------------------------------|
B|--------------------------------------------------------------6--5-|
G|-10-9-7-5--3-2-0--9-7-5-5--3-2-----------5--7-5-3--3-2--3--5-------|
R|--------------------------------3-5-7--3---------------------------|
A|-------------------------------------------------------------------|
E|-------------------------------------------------------------------|





Calificar esta versión:
Aviso: Este fichero es trabajo propio de su transcriptor y representa su interpretación personal de la canción. El material contenido en esta página es para exclusivo uso privado, por lo que se prohibe su reproducción o retransmisión, así como su uso para fines comerciales.
Más versiones de Brazil, Tronic
Brazil
acordes
Brazil
tablatura
Descubre más canciones de Tronic