Bajo Llave, Tronic (bajo)

Autor: cirolonga | 37689 visualizaciones



Intro
1.
G|-2-2-2-2-2-2-2-2-2-2-2-2-2-2-2-2-|
D|---------------------------------|
A|---------------------------------|--x2
E|---------------------------------|

Verso
"Salgo a kaminar..."  x2
2.
G|------------------------------------------------------------------------|
D|------------------------------------------------------------------------|
A|-77777777-77777777-77777777-77777777------------------------------------|
E|------------------------------------55555555-55555555-55555555-55555555-|

Pre-Coro
"Y asi..."
3.
G|---------------------------------------------------------------------|
D|-44444444-4444444-2-222222-2242-------------------7-7777777-77777777-|
A|--------------------------------0-000000-0-000000--------------------|
E|---------------------------------------------------------------------|

Coro
"Aki mi sueños realidad..."
4.
G|------------------------------------|
D|------------------------------------|
A|------------------------------------|
E|-00000000-00000000-00000000-0000000-|

"Nadie puede entrar..."
5.
G|-------------------------------------------------------------------|
D|-------------------------------------------------------------------|
A|-4-44-4444-44-4442-22-2222-22-22-20-00-0000-00-0000-00-0000-00-000-|
E|-------------------------------------------------------------------|

"Mi respirasión..."
6.
G|--------------------------------------------------------------------|
D|--------------------------------------------------------------------|
A|-44444444-44444444-22222222-22222220-00-0000-00-0000-00-0000-00-000-|
E|--------------------------------------------------------------------|

Verso
"Rompo el ventanal..."
7.
G|------------------------------------------------------------------------|
D|------------------------------------------------------------------------|
A|-77777777-77777777-77777777-77777777------------------------------------|
E|------------------------------------55555555-55555555-55555555-55555555-|

Pre-Coro
"Y asi..."
8.
G|---------------------------------------------------------------------|
D|-44444444-4444444-2-222222-2242-------------------7-7777777-77777777-|
A|--------------------------------0-000000-0-000000--------------------|
E|---------------------------------------------------------------------|

Coro
"Aki mi sueños realidad..."
9.
G|------------------------------------|
D|------------------------------------|
A|------------------------------------|
E|-00000000-00000000-00000000-0000000-|

"Nadie puede entrar..."
10.
G|-------------------------------------------------------------------|
D|-------------------------------------------------------------------|
A|-4-44-4444-44-4442-22-2222-22-22-20-00-0000-00-0000-00-0000-00-000-|
E|-------------------------------------------------------------------|

"Mi respirasión..."
11.
G|--------------------------------------------------------------------|
D|--------------------------------------------------------------------|
A|-44444444-44444444-22222222-22222220-00-0000-00-0000-00-0000-00-000-|
E|--------------------------------------------------------------------|

"Al fin suena la estasión..."
12.
G|------------------------------------------------------------------------|
D|-22222222-22222222-22222222-22222222------------------------------------|
A|------------------------------------44444444-44444444-44444444-44444444-|
E|------------------------------------------------------------------------|

13.
G|---------------------------------------------------|
D|-----------------------------------7-7-7-7-7-7-7-7-|
A|-22222222-22222222-0-0-0-0-0-0-0-0-----------------|
E|---------------------------------------------------|

"Volar..."
14.
G|--------------------------------------------------------------------|
D|-2-2-2-2-2-2-2-2----------------------------------------------------|
A|------------------2-2-2-2-2-2-2-2--0-0-0-0-0-0-0-0--0-0-0-0-0-0-0-0-|
E|--------------------------------------------------------------------|

15.
G|-------|
D|-------|
A|-0~----|
E|-------|





Calificar esta versión:
Aviso: Este fichero es trabajo propio de su transcriptor y representa su interpretación personal de la canción. El material contenido en esta página es para exclusivo uso privado, por lo que se prohibe su reproducción o retransmisión, así como su uso para fines comerciales.
Más versiones de Bajo Llave, Tronic
Bajo Llave
acordes
Bajo Llave
bajo
Descubre más canciones de Tronic