Aceptar, Tronic (bajo)

Autor: Anónimo | 30621 visualizaciones



esta es mi primera tab de bajo, asi ke perdonen si hay errores o
es muy basica. En este tab esta la cancion en orden, x eso hay
varios 'coro' o 'verso'.



Intro:

|------------------------------------
|------------------------------------
|----7-7-7-7-------------------------
|------------5-5-5-7-7-7-5-5-5-5-----

Verso:

|------------------------------------
|------------------------------------
|--7-7-7-7---------------------------
|---------5-5-5-5-7-7-7-7-5-5-5-5----
 (aceptar, al ke no es....)

|---------------------------------------
|---------------------------------------
|--7-7-7-7------------------------------
|----------5-5-5-5-7-7-7-7-9-9-9-9-9----
  (es avanzar, es...)



Coro:

|--------------------
|--------------------
|-----------7-7-9-9--
|---5-5-7-7----------   x3
 (nada le gana...)

|----------------
|----------------
|----------------
|--5-5-5-7-7-7---
 (tanto egoismo...)


Verso:

|------------------------------------
|------------------------------------
|--7-7-7-7---------------------------
|---------5-5-5-5-7-7-7-7-5-5-5-5----
 (se rompio, su corazon....)

|---------------------------------------
|---------------------------------------
|--7-7-7-7------------------------------
|----------5-5-5-5-7-7-7-7-9-9-9-9-9----
  (yo solo di, mi amistad...)


Coro:

|--------------------
|--------------------
|-----------7-7-9-9--
|---5-5-7-7----------   x3
 (nada le gana...)

|----------------
|----------------
|----------------       x1
|--5-5-5-7-7-7---
 (tanto egoismo...)

|--------------------
|--------------------
|-----------7-7-9-9--
|---5-5-7-7----------   x3
 (no pienses ke...)

|----------------
|----------------
|----------------       x1
|--5-5-5-7-7-7---
 (porke pelearnos...)


Punteo:

|------------------------------------------
|------------------------------------------
|---4-4-4-4-4----------2-2-2-2-2-----------
|-------------5-5-5-5-5----------4-4-4-4-4-

|-------------------------------------------
|-------------------------------------------
|-4-4-4-4-4-7-7-7-7-7-7-7-------------------
|-------------------------7-7-7-7-5-5-5-5-5-


Coro:

|--------------------
|--------------------
|-----------7-7-9-9--
|---5-5-7-7----------   x3
 (nada le gana...)


|----------------
|----------------
|----------------       x1
|--5-5-5-7-7-7---
 (tanto egoismo...)

|--------------------
|--------------------
|-----------7-7-9-9--
|---5-5-7-7----------   x3
 (no pienses ke...)

|----------------
|----------------
|----------------       x1
|--5-5-5-7-7-7---
 (porke pelearnos...)



esta tab va especialmente dedicada al pablo, pa ke no
digar ke no hay tabs pa bajo de tronic. asi keno teni
eskusa pa no tokar!!! xD





Calificar esta versión:
Aviso: Este fichero es trabajo propio de su transcriptor y representa su interpretación personal de la canción. El material contenido en esta página es para exclusivo uso privado, por lo que se prohibe su reproducción o retransmisión, así como su uso para fines comerciales.
Más versiones de Aceptar, Tronic
Aceptar
acordes
Aceptar
bajo
Descubre más canciones de Tronic