Tal Vez, Tremolo (tablatura)

Autor: Anónimo | 24716 visualizaciones



Bueno bueno aqui esta la version real y como es...XD bueno debe
de tener algunas 3 o 4 fallitas por ahi jejeje haber si me dan
votitos jijiji pa enviar mas trascripciones

ahhh por sierto saludoss a nathaly Ortega Yacolca
proximamente cachimba en Medicina XD....

A#5
4)---8-----
5)---8-----
6)-6-------

INTRO:
Dm - A# - F - C

Arpeo

       Dm         A#            F            C
e-1------1--------1------1------1-----1------0------0-----
b---3------3--------3------3------1-----1------1------1---
g-----2------2--------3------3------3-----3------0------0-
d-0---------------3---------------------------------------
a-------------------------------3------------3------------
E---------------------------------------------------------

Dm       A#           F       C
Solo pronuncio tu nombre………
Dm       A#           F       C
en las noches mas oscuras…………
Dm       A#           F       C
aLfín solo yo y a luna   ha……
Dm       A#           F       C
Donde  nadie puede escucharme……

CORO:

  A5                 A#5
soñé tu cuerpo  y tu piel

                  C5
junto a mí abrazándome

C5                    C5
Yo solo recuerdo que ame

     A#5  F5        C5      G5
tal vez.. de mi ya ni te acuerdes

     A#5  F5        C5      G5
tal ves.. ya no te reiras de mi

     A#5  F5        C5      G5
tal ves.. mi nombre ni te acuerdes

     A#5  F5           C5
tal vez.. tan solo yo te ame………


Dm - A# - F - C


Dm       A#           F       C
se que  ahora estas sola aaaaa
Dm       A#           F       C
triste y abandonada burladaaaaa
Dm       A#           F       C
me cambiaste por tu ambiciónnnn
Dm       A#           F       C
y ahora no tienes nada nadaaaa

CORO

 A5                 A#5
soñé tu cuerpo  y tu piel

                  C5
junto a mí abrazándome

C5                    C5
Yo solo recuerdo que ame

    A#5  F5        C5      G5
tal vez.. de mi ya ni te acuerdes

    A#5  F5        C5      G5
tal ves.. ya no te reiras de mi

    A#5  F5        C5      G5
tal ves.. mi nombre ni te acuerdes

    A#5  F5           C5
tal vez.. tan solo yo te ame………

Punteo:


e-----------8-10--8-6-5-------------------------5^--------
b----- 8-10-------------8-6-5--5-6---5-6----5-6-----------
g--9^------------------------------7-----5----------------
d---------------------------------------------------------
a---------------------------------------------------------
E---------------------------------------------------------


e-------------------------------13^-10s18-18-17-----------
b------------------------11^-10----------------18---18s21-
g-------------7^-5-9^-7--------------------------16-------
d---------5-7---------------------------------------------
a--7--5-7-------------------------------------------------
E---------------------------------------------------------

e---------------------15-17-17s11--11s24------------------
b--18-17-15--15-17-18-------------------------------------
g---------------------------------------------------------
d---------------------------------------------------------
a---------------------------------------------------------
E---------------------------------------------------------

CORO

 A5                 A#5
soñé tu cuerpo  y tu piel

                  C5
junto a mí abrazándome

C5                    C5
Yo solo recuerdo que ame

    A#5  F5        C5      G5
tal vez.. de mi ya ni te acuerdes

    A#5  F5        C5      G5
tal ves.. ya no te reiras de mi

    A#5  F5        C5      G5
tal ves.. mi nombre ni te acuerdes

    A#5  F5           C5
tal vez.. tan solo yo te ame………


e--------------------------------------------------------
b--------------------------------------------------------
g--7--9--10--9--7--5--3----------------------------------
d-----------------------7--5--3--2--0--------------------
a--5--7--8---7--5--3--1----------------------------------
E-----------------------5--3--1--0--0--------------------
(y repìten otra ves hasta el final)

Escuchen con detenimiento el pique talves les sea un poquito dificil
q lleven la secuencia NOs vemos...!!!!





Calificar esta versión:
Aviso: Este fichero es trabajo propio de su transcriptor y representa su interpretación personal de la canción. El material contenido en esta página es para exclusivo uso privado, por lo que se prohibe su reproducción o retransmisión, así como su uso para fines comerciales.
Más versiones de Tal Vez, Tremolo
Tal Vez
acordes
Tal Vez
tablatura
Descubre más canciones de Tremolo