Rosas Negras, Tremolo (acordes)

Autor: Anónimo | 23889 visualizaciones

aa5ambb5cc5dd5e5gg5


Bueno no tengo mucha experiencia en esto, pero ahi vamos ps:

INTRO 1

Am D G C B Am

e|---5-------8-2-----2-3-3--------------------------|
B|---5-----5---3---3---3-3------------1-3H5P3-H2----|
G|*------5-------2--------------0-----------------*-|
D|*----7----------------------2---2---------------*-|
A|---7---------0---------2-2H3------3---------------|
E|--------------------------------------------------|

INTRO 2

A5 D5 G5 C5 [B5 A5]

e|---------------------|
B|-3H5*-3P2-0H2-2H3----|
G|---------------------|
D|---------------------|............. aun no la saco
A|---------------------|
E|---------------------|


VERSO 1:      A D G G

Am      D      G
  CUANDO PASAS CERCA
Am      D      G
  GOLPEAS MI CORAZON
Am      D      G
  NO DIRE QUE ME MUERO
Am      D      G
  CUANDO TE RIES


C5      G5      A5
SE QUE NO IMAGINAS
G5      C5
A VOLAR CONMIGO
E5      A5
QUE TE ACOMPAÑA
G5      A5
A BUSCAR OTRO AMOR



REPITE INTRO 1


VERSO 2

Am      D      G
  SOÑARE EN MI CUARTO
Am      D      G
  CON TU IMPOSIBLE AMOR
Am      D      G
  GOZARE TU PELO
Am      D      G
  CON MIS SUSPIROS


C5      G5      A5
SE QUE NO IMAGINAS
G5      C5
AL
E5      A5
QUETE ACOMPAÑA
G5      A5
A BUSCAR OTRO AMOR


CORO:

A5      D5
NO DIRE
      G5
QUE MI ALMA

LLORA POR TI
C5      B5      A5
CUANDO RIES NENA
      D5
TE HECHARE
      G5      C5 B5 A5
ROSAS NEGRAS DESPUES            [BIS]


SOLO:


SE QUE NO I.....
CORO....



Espero que le haya atinado en los acordes, y bueno espero 
tambien sus comentarios y criticas, todas son bien aceptadas 
[[email protected]]
TE AMO EVELYN!!!!!!!!!!!!!!!!!!!!!!!!!!!!





Calificar esta versión:
Aviso: Este fichero es trabajo propio de su transcriptor y representa su interpretación personal de la canción. El material contenido en esta página es para exclusivo uso privado, por lo que se prohibe su reproducción o retransmisión, así como su uso para fines comerciales.
Más versiones de Rosas Negras, Tremolo
Rosas Negras
acordes
Rosas Negras
tablatura
Rosas Negras
bajo
Descubre más canciones de Tremolo