Nunca Te Olvidare, Tremolo (tablatura) (ver 2)

Autor: Anónimo | 40920 visualizaciones



HOLA A TODOS, ACA PAUL LES MANDA ESTA CANCION QUE ESTA DE LA PM
IDEAL PA' QUE LE CANTEN A LAS FLACAS...


Ah porseaca:  E||---|---|---|---
              B||---|---|--|---
              G||---|---|---|---
    C/D       D||---|--|---|---
              A||---|---|--|---
              E||---|---|---|---

G
A veces pienso si ella tuvo la razón
C/D
si me culpo por que alguien fue y la cegó
G                                      C/D
lo cierto es que nunca volveré a amar, amar así
G
ahora no puedo dejar de pensar mas
C/D
si ella me enseño lo que es el amor
G                                   C/D 
te digo adios y se que toda la vida pensare en ti


PRE-CORO:
(min. 00:35)   
  
ahi le metes distortion...

   G5      F5#     Em5
E||-------|-------|-------|
B||-------|-------|-------|
G||-------|-------|-------|
D||--5~~--|--4~~--|--2~~--|
A||--5~~--|--4~~--|--2~~--|
E||--3~~--|--2~~--|-------|

       D5                  
como decirte adiós
     C5        G5~  F5#~  Em5~
si fuíste miaaa
        D5            
y nos amabamos
   C5           D5 
en la obscuridad


CORO: 
(00:51)

G5    D5
  ohh olvidare
E5           C5
  las noches que me diste
G5       D5 
  me entregaste tu amor 
E5         C5           D5
  tambien toda tu pasión...  (rep. 2 veces)


G
aun no se si talvez te ame poco
D/C
o si talvez te ame mas de lo que pensas
G                                      D/C
lo cierto es que nunca volvere a amar, amar asi

G
te digo adios y aca se muere mi ensueño
D/C
mi ensueño de tenerte y besarte otra vez
G                                   D/C
te digo adios y se que toda la vida pensare en tíí



PRE CORO...
(01:42)


CORO(01:57) 

(en la 3ra vuelta subir un tono: A5 - E5 - E5 en 9no traste.- D5 ): (02:22)



PUNTEO (02:49)

E||-----------------------------------------------------------------------------------
B||-------------11-------11--10h8-----------------------10--11~--13/15p--13--10--13~--
G||---------10-------12~-----------10----7~---------10--------------------------------
D||-10--12----------------------------------10--12------------------------------------
A||-----------------------------------------------------------------------------------
E||-----------------------------------------------------------------------------------

     |------------tocar rápido------------| 
E||------------------------------------------------------------------------------
B||--10--11--10----------10------------------------------------------------------
G||--------------12--10------12--10------12~---------12-----------------12--10~--
D||----------------------------------12-------10/11------11--10h11--13-----------
A||------------------------------------------------------------------------------
E||------------------------------------------------------------------------------


E||-----------------------------------------------------------------------------------------
B||-----------------------------------------------------------------------------------------
G||--12--14--15----------15------17--15--14~--12--14--15----------15------15--12/14/12--10--
D||--------------12--12------13---------------------------12--12------13--------------------
A||-----------------------------------------------------------------------------------------
E||-----------------------------------------------------------------------------------------


PA' FINALIZAR

E||----------------------------------------------------------|
B||----------------------------------------------------------|
G||--12--14--15------15------16/17--15--14--12--10------10~--|
D||--------------12------13-------------------------12-------|
A||----------------------------------------------------------|
E||----------------------------------------------------------|


PUNTEO 2 (SEGUNDA GUITARRA): (02:49)

      Durante el PUNTEO  de la PRIMERA GUITARRA, en segundo plano tocar lo siguiente:

            Gm   Cm   Dm

              Este es un arpegio alternativo, es muy fácil
              los cambios de notas son haciendo slides.
              En el 'min 03:19' acompañar a la primera 
            guitarra en su riff tocando lo mismo que ella, pero bajado una octava.

              OK?



Bueno eso es todo, saludos pa' la promo arrupe 2005,pa' los patas,
pa' la promo champa 2003, y a todos que valoran la musica, porque 
la musica es vida.

Reclamos, quejas, opiniones, o lo que chucha sea me escriben a
empty_sk8@hotmail.com

me despido:

byeeeeeeeeeeeeeeeeeeeeeeeeeeeeeee...!!!!!





Calificar esta versión:
Aviso: Este fichero es trabajo propio de su transcriptor y representa su interpretación personal de la canción. El material contenido en esta página es para exclusivo uso privado, por lo que se prohibe su reproducción o retransmisión, así como su uso para fines comerciales.
Más versiones de Nunca Te Olvidare, Tremolo
Nunca Te Olvidare
tablatura
Nunca Te Olvidare (ver 2)
tablatura
Descubre más canciones de Tremolo