Enamorado De Un Angel, Tremolo (tablatura)

Autor: dieguex k/f | 31304 visualizaciones



AFINACION: e b g D A E  (Normal)

Explicacion de la TABLATURA
                           h=   hammer on
                           p=   pull-off
                           /=   slide up
                           \=   slide down
                           ^=   bend full
                           b=   bend half
                           br^= bend´n Full
                           V~=  vibrato
                           T=  Tapping



INTRO: (arpegios con PALM MUTTING)

    A               E               F#m               D
e|--------------------------------------------------------------------
b|---------3p2-------------------------------2----------------3-------
g|-----2-------2------------2p1----------2-----2---2------2-----2---2-
D|---2---2-------2------2-------2----------4-----4------4---4-----4---
A|-0------------------2---2-------2----4--------------5---------------
E|------------------0----------------2--------------------------------

    A               E               F#m               D
e|--------------------------------------------------------------------
b|---------3p2-------------------------------2----------------3-------
g|-----2-------2------------2p1----------2-----2---2------2-----2---2-
D|---2---2-------2------2-------2----------4-----4------4---4-----4---
A|-0------------------2---2-------2----4--------------5---------------
E|------------------0----------------2--------------------------------

PRIMER SOLO (0:20)
===========

               A               E               F#m
e|--------10-9v~~--10-12-10h12br^-10-9-9v~~-------------
b|----12--------------------------------------12-10v~~--
g|------------------------------------------------------
D|------------------------------------------------------
A|------------------------------------------------------
E|------------------------------------------------------

                    D
e|-----10-10h9------10-10h9-------12-----10-9-----
b|---12-----------12-----------12-----------------
g|------------------------------------------------
D|------------------------------------------------
A|------------------------------------------------
E|------------------------------------------------

             A               E               F#m
e|--------10-9~~---10-12-10h12br^-10--9-9~~------------
b|------------------------------------------12--10~~---
g|-----------------------------------------------------
D|-----------------------------------------------------
A|-----------------------------------------------------
E|-----------------------------------------------------

                 D                                A
e|-----10-10h9-----10-10h9-----10-10h9-----10--9v~~~--
b|---12----------12----------12----------12-----------
g|----------------------------------------------------
D|----------------------------------------------------
A|----------------------------------------------------
E|----------------------------------------------------
                                                  (0:39)

A                E
 Es tan difícil querer que a quien quiero
F#m                    D
  Solo se hace realidad en tus sueños
A              E
 Es increíble como aparece
F#m                          D
  Dentro en mi mente cuando no estoy durmiendo

 A5        E5            F#5              D5  E5-D5-C#5-B5
Siempre apareces como un ángel entre mis sueños
 A5        E5            F#5              D5  E5-D5-C#5-B5
Siempre apareces como un ángel entre mis sueños

(1:18)
A             E
 Ella sabe como consolarme
F#m                      D
 cuando me siento mal y estoy desesperado
A                   E
 yo la invito a una cita mas tarde
F#m                  D
y me quedo pensando hasta la noche

 A5         E5            F#5             D5  E5-D5-C#5-B5
Siempre apareces como un ángel entre mis sueños
 A5            E5           F#5                D5 E5-D5-C#5-B5
Bella como el Arte simple como el aire que respiro

 A5         E5            F#5              D5  E5-D5-C#5-B5
Siempre apareces como un ángel entre mis sueños
 A5            E5          F#5               D5
Bella como el Arte simple como el aire que respiro

SEGUNDO SOLO  (2:16)
============

   A5                                 E5                      F#5
e|-----------------------7h9br^--7---7------------12-----------------------
b|------------10------10----------10--10br^--12br^--12br^---12--10-11-10---
g|---\9--9h11----9h11------------------------------------------------------
D|-------------------------------------------------------------------------
A|-------------------------------------------------------------------------
E|-------------------------------------------------------------------------

         D5                        A5
e|------12-10--------------------------------------
b|---10-------12-10--12-12br-13br-13br-12---10~~~--
g|-------------------------------------------------
D|-------------------------------------------------
A|-------------------------------------------------
E|-------------------------------------------------

           E5                          F#5                      D5
e|--------------------------------9-10-9-10-10/12br~~---10-9-10-9v~~\-
b|-----10--12--10-12br^--12-10-12-------------------------------------
g|---11---------------------------------------------------------------
D|--------------------------------------------------------------------
A|--------------------------------------------------------------------
E|--------------------------------------------------------------------
                                                                 (2:34)

A                 E
 Al despertar con ansias espero
F#m                    D5
  Otra noche mas para poder mirarlaaaaaaaa

A5         E5            F#5              D5 E5-D5-C#5-B5
Siempre apareces como un ángel entre mis sueño
A5            E5           F#5                D5 E5-D5-C#5-B5
Bella como el Arte simple como el aire que respiro


A5         E5            F#5              D5
Siempre apareces como un ángel entre mis sueños
A5            E5           F#5                D5
Bella como el Arte simple como el aire que respiro

ULTIMO SOLO (3:23)
===========

            A5            E5         F#5        D5             A5
e|------------------------------------------------------------------------
b|-------7-9-10v~~---9-7--------------------------------------------------
g|------7------------------7br^~----6-7-6br^~-----------------------------
D|--------------------------------9-----------9-7-6br^~~~--6-7-9--7br^~~--
A|------------------------------------------------------------------------
E|------------------------------------------------------------------------

          E5                  F#5         D5
e|-----------------------------------------------------
b|-----------------------------------------------------
g|-----------------------------------------------------
D|---8/9~--10/11v~--10/11-12--11h12v~~~~--12h11v~~~~---
A|-----------------------------------------------------
E|-----------------------------------------------------

(3:42)
           A             E                 F#m              D
e|------------------------9v~~--------7-9-10-9v~~~-----7---------
b|------7-9-10v~~------9-7--------------------------------10-9v--
g|----7----------------------------------------------------------
D|---------------------------------------------------------------
A|---------------------------------------------------------------
E|---------------------------------------------------------------
                   A                         E              F#m      D5
e|----------7-------7--9--7v~~~----7-7-9-10--9br^h10br^~~~~h9v~~~--7s5v~~\--
b|-----9-10---10--10--------------------------------------------------------
g|--------------------------------------------------------------------------
D|--------------------------------------------------------------------------
A|--------------------------------------------------------------------------
E|--------------------------------------------------------------------------

(4:02) TAPPING

        A5                                        E
e|-12-0h10--12-0h9--12-0h7--12-0h9--12-0h5---12-0h7--12-0h4--12-0h5--12-0h7--12-0h5--
b|--T--------T-------T-------T-------T--------T-------T-------T-------T-------T------
g|-----------------------------------------------------------------------------------
D|-----------------------------------------------------------------------------------
A|-----------------------------------------------------------------------------------
E|-----------------------------------------------------------------------------------

       F#m                                        D
e|-12-0h7--12-0h9--12-0h10--12-0h9--12-0h7---12-0h9--12-0h5--12-0h7--12-0h4--12-0h5v~
b|--T-------T-------T--------T-------T--------T-------T-------T-------T-------T------
g|-----------------------------------------------------------------------------------
D|-----------------------------------------------------------------------------------
A|-----------------------------------------------------------------------------------
E|-----------------------------------------------------------------------------------


(4:11)
             A5              E5                     F#5
e|--------10--9~~--10-12-10h12br~--10------9-9v~~------------
b|---/12-------------------------------------------12--10~~--
g|-----------------------------------------------------------
D|-----------------------------------------------------------
A|-----------------------------------------------------------
E|-----------------------------------------------------------

                      D5           A5       E5           A5
e-------10--9------10---9---------10h12---10-9----15br~--17v~~~----
b---12-----------12------------12----------------------------------
g------------------------------------------------------------------
D|-----------------------------------------------------------------
A|-----------------------------------------------------------------
E|-----------------------------------------------------------------
                                                               (4:24)
                                                                fin





Comentarios del colaborador: esto bn t lo dediko a ti Blenda eres el amor de mi vida!

Calificar esta versión:
Aviso: Este fichero es trabajo propio de su transcriptor y representa su interpretación personal de la canción. El material contenido en esta página es para exclusivo uso privado, por lo que se prohibe su reproducción o retransmisión, así como su uso para fines comerciales.
Más versiones de Enamorado De Un Angel, Tremolo
Enamorado De Un ángel
acordes
Enamorado De Un Angel
tablatura
Descubre más canciones de Tremolo