Morí, Tranzas (bajo)

Autor: Anónimo | 36234 visualizaciones



Este rola esta chida y se usa el slide..

(*SLIDE)

G|----------------------------------------------------------------|
D|----------------------------------------------------------------|
A|--*3/10---------------------------------------------------------|
E|----------------------------------------------------------------|

G|----------------------------------------------------------------|
D|----------------------------------------------------------------|
A|--*3/5-3--*3/5---*3/5-3---*3/5----------------------------------|
E|---------------3------------------------------------------------|



ESTO SE TOKA CUANDO DICE ESTO:


Y preguntas por mi
Qué como me va
Haber como tome 
Tantas cosas que hable
De la Soledad
Que si estoy bien o mal	    
Que si puedo reir	      
O si puedo llorar...


G|----------------------------------------------------------------|
D|----------------------------------------------------------------|
A|----3---3---0--*3/5--*3/10--------------------------------------|
E|--3---3---0-----------------------------------------------------|

CUANDO EMPIEZA CANTAR ESTO SE TOKA:

Y preguntas por mi	
Por curiosidad
Y quisiera decir 
Que te extraño a rabiar
Que ya no puedo más
O se me pasará
Pero ya no lo sé
Yo ya no siento más

G|----------------------------------------------------------------|
D|----------------------------------------------------------------|
A|------3-33----3-33----0-00-5-55-*3/10---------------------------|
E|--3-33----3-33----0-00------------------------------------------|

CORO

Porqué ya nos estoy aqui

MORI			     
MORI el dia en que te fuiste asi de mi 

No estoy
Camino por las calles sin pensar
Oigo sin escuchar	
Abrazo sin sentir
Soy el unico muerto que puede caminar

Porqué ya nos estoy aqui

MORI
MORI el dia en que te fuiste asi de mi 
No estoy
Solo existe este maldito AMOR
Qué es mas grande que el SOL
No tiene compasión
No preguntes por mi
Yo ya no estoy aqui...

G|----------------------------------------------------------------|
D|----------------------------------------------------------------|
A|------3-33----3-33--7-7-6-6-5-5-3-------------------------------|
E|--3-33----3-33--------------------------------------------------|


G|----------------------------------------------------------------|
D|----------------------------------------------------------------|
A|------3-33----3-33--7-7-6-6-5-5-3--*3/10------------------------|
E|--3-33----3-33--------------------------------------------------|

SUGUE LO MISMO NADMAS QUE CON OTR LETRA

Y preguntas por mi
De casualidad
Si sali a relucir una conversación
Como otra normal
Si tenia la razón
O si yo estaba mal
No me puede importar...

G|----------------------------------------------------------------|
D|----------------------------------------------------------------|
A|------3-33----3-33----0-00-5-55-*3/10---------------------------|
E|--3-33----3-33----0-00------------------------------------------|

CORO

Porqué ya nos estoy aqui

MORI			     
MORI el dia en que te fuiste asi de mi 

No estoy
Camino por las calles sin pensar
Oigo sin escuchar	
Abrazo sin sentir
Soy el unico muerto que puede caminar

Porqué ya nos estoy aqui

MORI
MORI el dia en que te fuiste asi de mi 
No estoy
Solo existe este maldito AMOR
Qué es mas grande que el SOL
No tiene compasión
No preguntes por mi
Yo ya no estoy aqui...

G|----------------------------------------------------------------|
D|----------------------------------------------------------------|
A|------3-33----3-33--7-7-6-6-5-5-3-------------------------------|
E|--3-33----3-33--------------------------------------------------|


G|----------------------------------------------------------------|
D|----------------------------------------------------------------|
A|------3-33----3-33--7-7-6-6-5-5-3--*3/10------------------------|
E|--3-33----3-33--------------------------------------------------|

G|----------------------------------------------------------------|
D|----------------------------------------------------------------|
A|--*3/5-3--*3/5---*3/5-3---*3/5----------------------------------|
E|---------------3------------------------------------------------|





Calificar esta versión:
Aviso: Este fichero es trabajo propio de su transcriptor y representa su interpretación personal de la canción. El material contenido en esta página es para exclusivo uso privado, por lo que se prohibe su reproducción o retransmisión, así como su uso para fines comerciales.
Más versiones de Morí, Tranzas
Morí
acordes
Mori (ver 2)
acordes
Mori (ver 3)
acordes
Morí
tablatura
Morí (ver 2)
tablatura
Morí
bajo
Morí
teclado
Descubre más canciones de Tranzas