Caer, Tragico Ballet (tablatura)

Autor: lacrimoivan | 45942 visualizaciones



INTRO
   Am               C                Dm
e/-----0----------------3---0-----0--1---0---1---3---/
B/-1-----1-0---0-1--1-----1---1-3------3---3---3---3-/
G/---2-------2--------0------------------------------/
D/-----------------------------------0---------------/ 2veces
A/-0----------------3--------------------------------/
E/---------------------------------------------------/
    Am
e/-----0---------------------------------------------/
B/-1-----1-0---0-1-----------------------------------/
G/---2-------2---------------------------------------/
D/---------------------------------------------------/
A/-0-------------------------------------------------/
E/---------------------------------------------------/
  

segunda parte
e/------------------------------------------7-8------/
B/-5--8-6-5--8-10-8-5-6--5-8-6-5--5-6-5-3------------/
G/---------------------------------------------------/

esa parte se toca con violin

e/----------------------12-12-10-8-7-5-5-6-5-------------------/
B/-5-6-5--6-8--10-12-13-----------------------5-6-5--10-12-13--/
G/-------------------------------------------------------------/

e/-------------------------------------------------------------/
B/12-10-12--13-15-13-12-13--12-10-8-6-3-5----------------------/
G/-------------------------------------------------------------/ 

solo

guitarra electrica
e/---5-7-8-8?8/7--7-8-7--7-8-7-5--8-7-----------5-7-8-8/10-8-7-/
B/-5----------------------------------5-6-5---5----------------/
G/-------------------------------------------------------------/
e/-5-7--12-12-12/10-10-10-10/8-8-8-8/7-7-7-7/5-5-7-7--7-5-5----/
B/-------------------------------------------------------------/
G/-------------------------------------------------------------/ 
guitarra electica
e/----------------------------------------------------5--------/
B/-1-3-5-5--3-5-3-1-3-1-0-1--0-1-0-3-1-0-3-0-1-3-5--5---5-5-5-5/
G/-------------------------------------------------------------/

e/--------5----------------------------------------------------/
B/-3-5--5---5-5-5-5-3-3--3/1-3-3/5-----------------------------/
G/-------------------------------------------------------------/

guitarra electrica
e/-13-12-10--8-7--5-5--7-7--8-7-5------------------------------/
B/-------------------------------------------------------------/
G/-------------------------------------------------------------/ 

final
e/-----0----------------3---0-----0--1---0---1---3---/
B/-1-----1-0---0-1--1-----1---1-3------3---3---3---3-/
G/---2-------2--------0------------------------------/
D/-----------------------------------0---------------/
A/-0----------------3--------------------------------/
E/---------------------------------------------------/
    Am
e/-----0---------------------------------------------/
B/-1-----1-0---0-1-----------------------------------/
G/---2-------2---------------------------------------/
D/---------------------------------------------------/
A/-0-------------------------------------------------/
E/---------------------------------------------------/





Calificar esta versión:
Aviso: Este fichero es trabajo propio de su transcriptor y representa su interpretación personal de la canción. El material contenido en esta página es para exclusivo uso privado, por lo que se prohibe su reproducción o retransmisión, así como su uso para fines comerciales.
Más versiones de Caer, Tragico Ballet
Caer
acordes
Caer
tablatura
Descubre más canciones de Tragico Ballet