Sadness And Sorrow, Toshiro Masuda (tablatura) (ver 2)

Autor: kreator95 | 21052 visualizaciones



------3-2-------------3-2---------------------------------
-----------3---------------0------------------------------
----------------------------------------------------------
---2--------------2---------------------------------------
----------------------------------------------------------
-0-------------0------------------------------------------


-2-0-----0-3-5-0---3---2-3-2-----7---5--------------------
-----0------------------------3---------------------------
----------------------------------------------------------
----------------------------------------------------------
----------------------------------------------------------
----------------------------------------------------------


-2-0-----0-3-5-0---3---2-3-2------------------------------
-----0-----------------------3--5-------------------------
----------------------------------------------------------
----------------------------------------------------------
----------------------------------------------------------
----------------------------------------------------------


-0-2-3---5-7--0--3-2-----0-2-3---5-7--0--3-2---7-5--------
----------------------5----------------------3------------
----------------------------------------------------------
----------------------------------------------------------
----------------------------------------------------------
----------------------------------------------------------


-5--7--0--3--2---0-2-3---5-7--0--3-2---------------------
---------------5---------------------5--------------------
----------------------------------------------------------
----------------------------------------------------------
----------------------------------------------------------
----------------------------------------------------------





Calificar esta versión:
Aviso: Este fichero es trabajo propio de su transcriptor y representa su interpretación personal de la canción. El material contenido en esta página es para exclusivo uso privado, por lo que se prohibe su reproducción o retransmisión, así como su uso para fines comerciales.
Más versiones de Sadness And Sorrow, Toshiro Masuda
Sadness And Sorrow
tablatura
Sadness And Sorrow (ver 2)
tablatura
Descubre más canciones de Toshiro Masuda