Imparable, Tommy Torres (tablatura)

Autor: Anónimo | 30326 visualizaciones

Esta cancion se lo dedico a todos mis amigos de universidad
Alas Peruanas en especial a nadie por estoy mal del corazon pero q
se puede hacer

Intro

   C                                                  G

E--0--------------------------------------------------3----
B--1----1------0----(piano nota sol(G) varias veces)--3----
G--0--0---0--0----------------------------------------0----
D--2--------------------------------------------------0----
A--3--------------------------------------------------2----
E--x--------------------------------------------------3----

   C                                                   G

E--0---------------------------------------------------3---
B--1----1------0-1---(piano nota sol(G) varias veces)--3---
G--0--0---0--0-----------------------------------------0---
D--2---------------------------------------------------0---
A--3---------------------------------------------------2---
E--x---------------------------------------------------3---


C            G
Ágil como el agua
                 F
Fuerte como el viento
                 C
Duro como el tiempo

C               G
Me niegas la entrada
                F
Una y tantas veces
                C
que vivo del intento


Coro:

         F
y es que soy
G            F
Imparable, contigo
    G                     F
Indomable es lo que siento
           G         C
Pero es intocable tu corazóooooooon

   C                                                   G

E--0---------------------------------------------------3---
B--1----1------0-1---(piano nota sol(G) varias veces)--3---
G--0--0---0--0-----------------------------------------0---
D--2---------------------------------------------------0---
A--3---------------------------------------------------2---
E--x---------------------------------------------------3---


 C             G
Tanto que te busco
               F
Tanto que te alejo
               C
Tanto que no quiero


C                  G
Son tantas las hormonas
                   F
que le ganan la batalla
              C
a todos mis miedos


Coro:

          F
y es que soy
     G        F
Imparable, contigo
 G                    F
Indomable es lo que siento
            G        Dm      Am    G
Pero es intocable tu corazón oh no
Dm     Am    G
Tu corazóooooooooooon  no oh no


F      G           F
Imparable, por ti soy
       G            F
Inexplicableee sentimiento
             G           Dm   Am    G
Pero inalcanzable es tu corazóoooon
F
pero soy
G             F
Imparable, contigo oo oh
G                     F
Indomable es lo que siento
            G         Dm    Am   G
Pero es intocable tu corazóooooon  oh uh no
Tu corazón oh uh no
Tu corazon oh uh no

   C                                                  G

E--0--------------------------------------------------3----
B--1----1------0----(piano nota sol(G) varias veces)--3----
G--0--0---0--0----------------------------------------0----
D--2--------------------------------------------------0----
A--3--------------------------------------------------2----
E--x--------------------------------------------------3----

   C

E--0------------------------------
B--1----1------0-1----------------
G--0--0---0--0--------------------
D--2------------------------------
A--3------------------------------
E--x------------------------------

cualquier duda aqui esta mi msn tito_acuario_14@hotmail.com
y/o toti_cakime_14@hotmail.com voy a seguir mandando transcripciones
Calificar esta versión:
Aviso: Este fichero es trabajo propio de su transcriptor y representa su interpretación personal de la canción. El material contenido en esta página es para exclusivo uso privado, por lo que se prohibe su reproducción o retransmisión, así como su uso para fines comerciales.
Más versiones de Imparable, Tommy Torres
Imparable
acordes
Imparable
tablatura
Descubre más canciones de Tommy Torres