Reden, Tokio Hotel (tablatura)

Autor: javier_Dark | 36960 visualizaciones

Intro
E |-----------------------|
H |-----------------------|
G |------------555--------|
D |--2222------555-5-555--|         x2
A |--0000-2222-333-5-555--|
E |-------0000-----3-333--|

Verse
E |-----------------------|
H |-----------------------|
G |-----------------------|
D |--2222------555--------|         x6
A |--0000-2222-333-5-555--|
E |-------0000-----3-333--|

E |-----------------------|
H |-----------------------|
G |------------555--------|
D |--2222------555-5-555--|         x3
A |--0000-2222-333-5-555--|
E |-------0000-----3-333--|

E |------------------|
H |------------------|
G |------------------|
D |-3333333333333333-|
A |-3333333333333333-|
E |-1111111111111111-|

Chorus:
E |------------------------|
H |------------------------|
G |-5555-------------------|
D |-5555---2222-777-5-555--|             x5
A |-3333---2222-777-5-555--|
E |--------0000-555-3-333--|

Verse
E |-----------------------|
H |-----------------------|
G |-----------------------|
D |--2222------555--------|         x6
A |--0000-2222-333-5-555--|
E |-------0000-----3-333--|

E |-----------------------|
H |-----------------------|
G |------------555--------|
D |--2222------555-5-555--|         x3
A |--0000-2222-333-5-555--|
E |-------0000-----3-333--|

Chorus:
E |------------------------|
H |------------------------|
G |-5555-------------------|
D |-5555---2222-777-5-555--|             x5
A |-3333---2222-777-5-555--|
E |--------0000-555-3-333--|

Bridge
E |-------------------|
H |-------------------|
G |-77777777----------|                   x4
D |-77777777-77777777-|
A |-55555555-77777777-|
E |----------55555555-|

E |-------------------|
H |-------------------|
G |-------------------|                  
D |-77777777----------|
A |-77777777----------|
E |-55555555----------|

PreChorus
E |------------------------|
H |------------------------|
G |------------------------|
D |-5555-------------------|             
A |-3333---2222-777-5-555--|
E |--------0000-555-3-333--|

E |------------------------|
H |------------------------|
G |------------------------|
D |-5555--------22222222---|             
A |-3333---2222-22222222---|
E |--------0000-00000000---|

Chorus:
E |------------------------|
H |------------------------|
G |-5555-------------------|
D |-5555---2222-777-5-555--|             x4
A |-3333---2222-777-5-555--|
E |--------0000-555-3-333--|

E |------------------------|
H |------------------------|
G |-5555-------------------|
D |-5555---2222-777-5-555--|             asta el final
A |-3333---2222-777-5-555--|
E |--------0000-555-3-333--|
Calificar esta versión:
Aviso: Este fichero es trabajo propio de su transcriptor y representa su interpretación personal de la canción. El material contenido en esta página es para exclusivo uso privado, por lo que se prohibe su reproducción o retransmisión, así como su uso para fines comerciales.
Más versiones de Reden, Tokio Hotel
Reden
tablatura
Reden (ver 2)
tablatura
Descubre más canciones de Tokio Hotel