Ich Bin Nicht Ich, Tokio Hotel (tablatura)

Autor: Xx_thevampiremurder_xX | 24419 visualizaciones

link para que escuchen la cancion!
http://www.youtube.com/watch?v=RNJ3jQJuP14

intro:

e|-------------------|
B|-------------------|
G|--7----------------|
D|--7----------------|
A|--5-x(12)----------|
E|-------------------|

e|---------------------------------------------|
B|---------------------------------------------|
G|--77777777---33333333------------------------|
D|--77777777---33333333--33333333-3------------|
A|--55555555---11111111--33333333-3------------|
E|-----------------------11111111-0------------|

verso:

e|-----------------------------------------------|
B|-----------------------------------------------|
G|-5-55-5-55--7-77-7-77--5-55-5-55---------------|
D|-5-55-5-55--7-77-7-77--5-55-5-55--3-33--3-33---|
A|-3-33-3-33--5-55-5-55--3-33-3-33--3-33--3-33---|
E|----------------------------------1-11--0-00---|


e|-----------------------------------------------|
B|-----------------------------------------------|
G|-7-77--5-55------------------------------------|
D|-7-77--5-55--5-55--3-3333----------------------| x2
A|-5-55--3-33--5-55--3-3333----------------------|
E|-------------3-33--1-1100----------------------|

estribillo:

e|---------------------------------------------|
B|---------------------------------------------|
G|--77777777---33333333------------------------| x4
D|--77777777---33333333--33333333-33333333-----|
A|--55555555---11111111--33333333-33333333-----|
E|-----------------------11111111-00000000-----|


el verso de nuevo

verso:

e|-----------------------------------------------|
B|-----------------------------------------------|
G|-5-55-5-55--7-77-7-77--5-55-5-55---------------|
D|-5-55-5-55--7-77-7-77--5-55-5-55--3-33--3-33---|
A|-3-33-3-33--5-55-5-55--3-33-3-33--3-33--3-33---|
E|----------------------------------1-11--0-00---|


e|-----------------------------------------------|
B|-----------------------------------------------|
G|-7-77--5-55------------------------------------|
D|-7-77--5-55--5-55--3-3333----------------------| x2
A|-5-55--3-33--5-55--3-3333----------------------|
E|-------------3-33--1-1100----------------------|


y el estribillo

e|---------------------------------------------|
B|---------------------------------------------|
G|--77777777---33333333------------------------| x4
D|--77777777---33333333--33333333-33333333-----|
A|--55555555---11111111--33333333-33333333-----|
E|-----------------------11111111-00000000-----|


puente

e|-----------------------------------------------|
B|-----------------------------------------------|
G|--999--999--999---3333-3333--------------------|x2
D|--999--999--999---3333-3333--------------------|
A|--777--777--777---1111-0000--------------------|
E|-----------------------------------------------|


de nuevo el estribillo

e|---------------------------------------------|
B|---------------------------------------------|
G|--77777777---33333333------------------------| x4
D|--77777777---33333333--33333333-33333333-----|
A|--55555555---11111111--33333333-33333333-----|
E|-----------------------11111111-00000000-----|

FIN.


buenisima cancion de TH, el problema es que esta cnatada por bill cuando tenia 14 años, ya que es una canciondle primer disco y se oye bastante extraño a como canta ahora haha, pero el caso es que es muy facil de aprender asi ke a tocar la guitarra!

moka-san
Calificar esta versión:
Aviso: Este fichero es trabajo propio de su transcriptor y representa su interpretación personal de la canción. El material contenido en esta página es para exclusivo uso privado, por lo que se prohibe su reproducción o retransmisión, así como su uso para fines comerciales.
Más versiones de Ich Bin Nicht Ich, Tokio Hotel
Ich Bin Nicht Ich
acordes
Ich Bin Nicht Ich
tablatura
Descubre más canciones de Tokio Hotel