1000 Oceans, Tokio Hotel (tablatura)

Autor: diegojuan | 16307 visualizaciones

aqui les dejo una tablatura del grupo tokio hotel: cualquier sugerencia al correo diegodef@live.com
La mitad tono abajo.

Intro,
Tip, Ring los acordes, Am, F, Dm, Bajo G y más, suena mejor y más le gusta.

Eb | - 0 ------------- 1 ------------------ ------------ 1 ---- 3 ------------|
Bb | - 1 --- 1 --------- 1 ----- 1 ------------ 3 ---- 1 ------- ---- 3 ----- 1 ------|
Gb | - 2 ------- 4 ----- 2 ---------- 4 ------- 2 --------- 4 - ---- 0 --------- 4 - |
Db | - 2 ------------- 3 ------------------ 0 ------------ ---- 0 ------------|
Ab | - 0 ------------- 3 ------------------------------- ---- 2 ------------|
Eb | - 0 ------------- 1 ------------------------------- ---- 3 ------------|

-------------------------------------------------- -------------------------------------------------

calles vacías
Cada respiración que siga en la noche
Los vientos son fríos
El sol se ha congelado el mundo ha perdido la luz su
Llevo tu imagen profunda en mí
Volver a más de mil mares
Volver a nosotros
No pierde su confianza y su creencia

Eb | - 0 ------------- 1 ------------------ ------------ 1 ---- 3 ------------|
Bb | - 1 --- 1 --------- 1 ----- 1 ------------ 3 ---- 1 ------- ---- 3 ----- 1 ------|
Gb | - 2 ------- 4 ----- 2 ---------- 4 ------- 2 --------- 4 - ---- 0 --------- 4 - |
Db | - 2 ------------- 3 ------------------ 0 ------------ ---- 0 ------------| 4 veces.
Ab | - 0 ------------- 3 ------------------------------- ---- 2 ------------|
Eb | - 0 ------------- 1 ------------------------------- ---- 3 ------------|

-------------------------------------------------- -------------------------------------------------

Coro Pre.

Sólo confía en mí

Eb | - 1-1-1-1-1-1-1-1-1-1-1-1-1-1 --- |
Bb | - 1-1-1-1-1-1-1-1-1-1-1-1-1-1 --- |
Gb | - 2-2-2-2-2-2-2-2-2-2-2-2-2-2 --- |
Db | - 3-3-3-3-3-3-3-3-3-3-3-3-3-3 --- |
Ab | - 3-3-3-3-3-3-3-3-3-3-3-3-3-3 --- |
Eb | - 1-1-1-1-1-1-1-1-1-1-1-1-1-1 --- |


-------------------------------------------------- -------------------------------------------------

Estribillo.

Tenemos que ir a un millar de los océanos de ancho
Mil años oscuros Cuando el tiempo ha muerto
Mil estrellas están pasando por
Tenemos que ir a un millar de los océanos de ancho
Una y mil veces contra una marea sin fin
Vamos a ser libres para vivir nuestra vida


Eb |------------------------------------------------ ------------------------|
Bb |------------------------------------------------ ------------------------|
Gb |----------------------------------- 5-5-5-5-5-5-5 -5 ----------------------|
Db | -7-7-7-7-7-7-7-7 - 3-3-3-3-3-3-3-3 - 5-5-5-5-5-5-5 -5 - 5-5-5-5-5-5-5-5 -----| 4x
Ab | -7-7-7-7-7-7-7-7 - 3-3-3-3-3-3-3-3 - 3-3-3-3-3-3-3 -3 - 5-5-5-5-5-5-5-5 -----|
Eb | -5-5-5-5-5-5-5-5 - 1-1-1-1-1-1-1-1 --------------- ---- 3-3-3-3-3-3-3-3 -----|

Y para cerrar.

Eb |----|
Bb |----|
|----| Gb
Db | -7 - |
Ab | -7 - |
Eb | -5 - |

-------------------------------------------------- -------------------------------------------------

Sé que en alguna parte
Encontraremos un pequeño lugar para que usted y yo
Todo pasó a ser una manera diferente
No se puede sentir el pulso en las venas
Tan débil hoy
Dejamos que nuestros latidos del corazón nos guíe en la oscuridad

Eb | - 0 ------------- 1 ------------------ ------------ 1 ---- 3 ------------|
Bb | - 1 --- 1 --------- 1 ----- 1 ------------ 3 ---- 1 ------- ---- 3 ----- 1 ------|
Gb | - 2 ------- 4 ----- 2 ---------- 4 ------- 2 --------- 4 - ---- 0 --------- 4 - |
Db | - 2 ------------- 3 ------------------ 0 ------------ ---- 0 ------------| 4 veces.
Ab | - 0 ------------- 3 ------------------------------- ---- 2 ------------|
Eb | - 0 ------------- 1 ------------------------------- ---- 3 ------------|

-------------------------------------------------- -------------------------------------------------

Coro Pre.

Sólo confía en mí

Eb | - 1-1-1-1-1-1-1-1-1-1-1-1-1-1 --- |
Bb | - 1-1-1-1-1-1-1-1-1-1-1-1-1-1 --- |
Gb | - 2-2-2-2-2-2-2-2-2-2-2-2-2-2 --- |
Db | - 3-3-3-3-3-3-3-3-3-3-3-3-3-3 --- |
Ab | - 3-3-3-3-3-3-3-3-3-3-3-3-3-3 --- |
Eb | - 1-1-1-1-1-1-1-1-1-1-1-1-1-1 --- |

-------------------------------------------------- -------------------------------------------------
Estribillo.

Tenemos que ir a un millar de los océanos de ancho
Mil años oscuros Cuando el tiempo ha muerto
Mil estrellas están pasando por
Tenemos que ir a un millar de los océanos de ancho
Una y mil veces contra una marea sin fin
Vamos a ser libres para vivir nuestra vida

Eb |------------------------------------------------ ------------------------|
Bb |------------------------------------------------ ------------------------|
Gb |----------------------------------- 5-5-5-5-5-5-5 -5 ----------------------|
Db | -7-7-7-7-7-7-7-7 - 3-3-3-3-3-3-3-3 - 5-5-5-5-5-5-5 -5 - 5-5-5-5-5-5-5-5 -----| 4x
Ab | -7-7-7-7-7-7-7-7 - 3-3-3-3-3-3-3-3 - 3-3-3-3-3-3-3 -3 - 5-5-5-5-5-5-5-5 -----|
Eb | -5-5-5-5-5-5-5-5 - 1-1-1-1-1-1-1-1 --------------- ---- 3-3-3-3-3-3-3-3 -----|


-------------------------------------------------- -------------------------------------------------

No hay nada ni nadie nos va a faltar

Eb |------------------------------------------------ ---------------------|
Bb |------------------------------------------------ ---------------------|
GB | 7-7-7-7-7-7-7 ----------------------------------- ---------------------|
Db | 7-7-7-7-7-7-7 - 7-7-7-7-7-7-7 - 3-3-3-3-3-3-3 - 3-3 -3-3-3-3-3 -----------|
Ab | 5-5-5-5-5-5-5 - 7-7-7-7-7-7-7 - 3-3-3-3-3-3-3 - 3-3 -3-3-3-3-3 -----------|
Eb |--------------- 5-5-5-5-5-5-5 - 1-1-1-1-1-1-1 - 1-1 -1-1-1-1-1 -----------|

Y un día miraremos hacia atrás sin remordimientos

Eb |------------------------------------------------ ---------------------|
Bb |------------------------------------------------ ---------------------|
GB | 7-7-7-7-7-7-7 ----------------------------------- ---------------------|
Db | 7-7-7-7-7-7-7 - 7-7-7-7-7-7-7 - 3-3-3-3-3-3-3 - 5-5 -5-5-5-5-5 -----------|
Ab | 5-5-5-5-5-5-5 - 7-7-7-7-7-7-7 - 3-3-3-3-3-3-3 - 5-5 -5-5-5-5-5 -----------|
Eb |--------------- 5-5-5-5-5-5-5 - 1-1-1-1-1-1-1 - 3-3 -3-3-3-3-3 -----------|

-------------------------------------------------- -------------------------------------------------

Un millar de océanos de ancho
Mil años han muerto sin fin
Un millar de océanos de ancho
Un millar de estrellas son ...

Eb |------------------------------------------------ -----------------|
Bb |------------------------------------------------ -----------------|
|------------------------------------------------ Gb -----------------| 2 veces.
Db | -7-7-7-7-7 - 7-7-7-7-7 - 2-2-2-2-2 - 3-3-3-3-3 ----- ----------------|
Ab | -7-7-7-7-7 - 7-7-7-7-7 - 2-2-2-2-2 - 3-3-3-3-3 ----- -----------------|
Eb | -5-5-5-5-5 - 5-5-5-5-5 - 0-0-0-0-0 - 1-1-1-1-1 ----- -----------------|

Al pasar, pasar por

Eb |------------------------------------------------ -----------------|
Bb |------------------------------------------------ -----------------|
|------------------------------------------------ Gb -----------------| 2 veces.
Db | -7-7-7-7-7 - 7-7-7-7-7 - 2-2-2-2-2 - 3-3-3-3-3 ----- ----------------|
Ab | -7-7-7-7-7 - 7-7-7-7-7 - 2-2-2-2-2 - 3-3-3-3-3 ----- -----------------|
Eb | -5-5-5-5-5 - 5-5-5-5-5 - 0-0-0-0-0 - 1-1-1-1-1 ----- -----------------|

-------------------------------------------------- -------------------------------------------------

Por favor, no se alejan de mí
Por favor, no se alejan de mí

Eb |------------------------------------------------ ---------------------|
Bb |------------------------------------------------ ---------------------|
GB | 7-7-7-7-7-7-7 - 7-7-7-7-7-7-7 -------------------- ---------------------|
Db | 7-7-7-7-7-7-7 - 7-7-7-7-7-7-7 - 7-7-7-7-7-7-7 - 3-3 -3-3-3-3-3 -----------| 2x
Ab | 5-5-5-5-5-5-5 - 5-5-5-5-5-5-5 - 7-7-7-7-7-7-7 - 3-3 -3-3-3-3-3 -----------|
Eb |------------------------------ 5-5-5-5-5-5-5 - 1-1 -1-1-1-1-1 -----------|

-------------------------------------------------- -------------------------------------------------

Tenemos que pasar mil anchos océanos
Mil años oscuros Cuando el tiempo ha muerto
Mil estrellas están pasando por
Tenemos que ir a un millar de los océanos de ancho
Una y mil veces contra una marea sin fin
Entonces vamos a ser libres,


Eb |------------------------------------------------ ------------------------|
Bb |------------------------------------------------ ------------------------|
Gb |----------------------------------- 5-5-5-5-5-5-5 -5 ----------------------|
Db | -7-7-7-7-7-7-7-7 - 3-3-3-3-3-3-3-3 - 5-5-5-5-5-5-5 -5 - 5-5-5-5-5-5-5-5 -----| 4x
Ab | -7-7-7-7-7-7-7-7 - 3-3-3-3-3-3-3-3 - 3-3-3-3-3-3-3 -3 - 5-5-5-5-5-5-5-5 -----|
Eb | -5-5-5-5-5-5-5-5 - 1-1-1-1-1-1-1-1 --------------- ---- 3-3-3-3-3-3-3-3 -----|

-------------------------------------------------- -------------------------------------------------

Por favor, no se alejan de mí
Por favor, no se alejan de mí

Eb |------------------------------------------------ ---------------------|
Bb |------------------------------------------------ ---------------------|
GB | 7-7-7-7-7-7-7 - 7-7-7-7-7-7-7 -------------------- ---------------------|
Db | 7-7-7-7-7-7-7 - 7-7-7-7-7-7-7 - 7-7-7-7-7-7-7 - 3-3 -3-3-3-3-3 -----------| 2x
Ab | 5-5-5-5-5-5-5 - 5-5-5-5-5-5-5 - 7-7-7-7-7-7-7 - 3-3 -3-3-3-3-3 -----------|
Eb |------------------------------ 5-5-5-5-5-5-5 - 1-1 -1-1-1-1-1 -----------|

-------------------------------------------------- -------------------------------------------------

Final.

Un millar de océanos de ancho!.

Eb |----|
Bb |----|
|----| Gb
Db | -3 - |
Ab | -3 - |
Eb | -1 - |

-------------------------------------------------- -------------------------------------------------
Calificar esta versión:
Aviso: Este fichero es trabajo propio de su transcriptor y representa su interpretación personal de la canción. El material contenido en esta página es para exclusivo uso privado, por lo que se prohibe su reproducción o retransmisión, así como su uso para fines comerciales.
Más versiones de 1000 Oceans, Tokio Hotel
1000 Oceans
acordes
1000 Oceans
tablatura
Descubre más canciones de Tokio Hotel