Lo Siento, Toke Rosa (tablatura) (ver 2)

Autor: david_pxndx | 43257 visualizaciones



ola!! pz otra vez io!! ahora les mando otra vez esta tab pero kn el
 sohloh i todo lo de la otra guitarra kmo les había dixo!! pz ahí les va i ojala les sirva


intro: E (dejan sonar)


haien bn los cambios!                      P.M
e|-----------------------------------|   ------
B|-----------------------------------|   ------
G|--66xx44xx66xx44xx66xx44xx66xx4----|   ------
D|--66xx44xx66xx44xx66xx44xx66xx4--7-|   --22--
A|--44xx22xx44xx22xx44xx22xx44xx2--7-|   --22--
E|---------------------------------5-|   --00--


segunda parte del intro
Primera guitarra                 i terminan tocando esto:
e|-----------------------------------|  --------------------|
B|-----------------------------------|  --------------------|
G|-----------------------------------|  --------------------|
D|---66-4-6-4-6-4-6-4----999----888--|x3--------------------|
A|--------------------77-----77------|  ---77-6-7-6-7-6-----|
E|-----------------------------------|  ----------------77--|


Segunda guitarra                 i terminan tocando esto:
e|----------------------------------------------|  ------------------------|
B|----------------------------------------------|  ------------------------|
G|--66--44--4--4--6--4--6--4------999------888--|  ------------------------|
D|--66--44?-6--4--6--4--6--4--77?-999--77--888--|x3--77777777777777---22---|
A|--44--22?-4--2--4--2--4--2--77--777--77--666--|  --77777777777777---22---|
E|----------------------------55-------55-------|  --55555555555555---00---|



verso 1
Guitarra 2
se, q el tiempo nunk corre a nuestro favor.......... (sohloh aien las veces q se toca i el ritmo, i ia la tienen!!)
e|-------------------------------------------------------------|
B|-------------------------------------------------------------|
G|-------------------------------------------------------------|
D|--222---222---222222222222222---222---222---222222222222222--|
A|--222---222---222222222222222---222---222---222222222222222--|
E|--000---000---000000000000000---000---000---000000000000000--|
                           

luego la guitarra 1 entra haciendo esto:
tengo miedo de deciert lo q siento
e|-------------------------|
B|--10-12-10---------------|
G|-----------12-14-12-1010-|
D|-------------------------|
A|-------------------------|
E|-------------------------|


i no entiendo en q momento se me fue, solo se q desperte i ia no lo siento                          
e|---------------------------------------------|
B|---------------------------------------------|
G|-666666666-----------------------------------|
D|-666666666--777777777--999999999--777777777--| (aien bn los cambios!)
A|-444444444--777777777--999999999--777777777--|
E|------------555555555--777777777--555555555--|


Silencio
-----------------------------------------

coro
amor, ia no, kiero star cerk d ti, kiero mirart a los ojos i.............
Primera guitarra:
e|-------------------------|
B|----13121312131213121312-|
G|-------------------------|no stoi mui seguro si va azi! pro iwal les pongo lo q
D|-------------------------|pud sacar
A|-------------------------|
E|-------------------------|


amor, ia no, kiero star cerk d ti, kiero mirart a los ojos i.............

Segunda guitarra
e|---------------------------------|  -----
B|---------------------------------|  -----
G|---------444444------------------|  -----
D|-222222--444444--777777--999999--|x4--2--  ------->dejan sonar
A|-222222--222222--777777--999999--|  --2--
E|-000000----------555555--777777--|  --0--


el levant lo hacen kn este mi:
e|------------|
B|------------|
G|---9999999--|
D|---9999999--|
A|-7-7777777--|
E|------------|


verso 2
una emocion del corazón, simple i senciia q dolor......... (aki ieva P.M.)
e|------------------------------------------------|
B|------------------------------------------------|
G|------------------------------------------------|
D|--22222222222222222222222222222222222222222222--|x2
A|--22222222222222222222222222222222222222222222--|
E|--00000000000000000000000000000000000000000000--|


luego va esto:  no entiendo en q momento........
e|----------|----------|----------|----------|----------|----------|
B|----------|----------|----------|----------|----------|----------|
G|--6--4--6-|-6--4--6--|----------|--6--4--6-|--6--4--6-|----------|
D|--6--4--6-|-6--4--6--|-22222222-|--6--4--6-|--6--4--6-|--2222222-|
A|--4--2--4-|-4--2--4--|-22222222-|--4--2--4-|--4--2--4-|--2222222-|
E|----------|----------|-00000000-|----------|----------|--0000000-|


Coro
amor, ia no, kiero star cerk d ti, kiero mirart a los ojos i.............
Primera guitarra:
e|-------------------------|
B|----13121312131213121312-|
G|-------------------------|
D|-------------------------|
A|-------------------------|
E|-------------------------|


amor, ia no, kiero star cerk d ti, kiero mirart a los ojos i.............
Segunda guitarra
e|---------------------------------|  -----
B|---------------------------------|  -----
G|---------444444------------------|  --6--
D|-222222--444444--777777--999999--|x4--6--  ------->dejan sonar
A|-222222--222222--777777--999999--|  --4--
E|-000000----------555555--777777--|  -----


i la primera guitarra se mantiene haciendo esto:
e|-----------|
B|----5-6-5--|
G|--5--------|
D|-----------|x14
A|-----------|
E|-----------|


ahora la segunda lira entra haciendo esto: kn P.M.
e|--------------|---------------|---------------|---------------|
B|--------------|---------------|---------------|---------------|
G|--66666--6666-|--44444--44444-|---------------|---------------|
D|--66666--6666-|--44444--44444-|--77777--77777-|--777777777777-|
A|--44444--4444-|--22222--22222-|--77777--77777-|--777777777777-|
E|--------------|---------------|--55555--55555-|--555555555555-|



ahora kn p.m. 
e|----------------------|---------------------|
B|----------------------|---------------------|
G|----------------------|---------------------|
D|--222-----------------|-222-----------------|x2
A|--222--776-67-66-7-6--|-222-776-67-6-9-11-9-|
E|--000-----------------|-000-----------------|


coro
amor, ia no, kiero star cerk d ti, kiero mirart a los ojos i.............
Primera guitarra:
e|-------------------------|
B|----13121312131213121312-|
G|-------------------------|
D|-------------------------|
A|-------------------------|
E|-------------------------|


Segunda guitarra:
amor, ia no, kiero star cerk d ti, kiero mirart a los ojos i.............
e|---------------------------------|  -----
B|---------------------------------|  -----
G|---------444444------------------|  -----
D|-222222--444444--777777--999999--|x4--2--  ------->dejan sonar
A|-222222--222222--777777--999999--|  --2--
E|-000000----------555555--777777--|  --0--


i terminan tocando el intro
e|----------------------------------------------|  
B|----------------------------------------------|  
G|--66--44--4--4--6--4--6--4------999------888--|  
D|--66--44?-6--4--6--4--6--4--77?-999--77--888--|x3
A|--44--22?-4--2--4--2--4--2--77--777--77--666--|  
E|----------------------------55-------55-------|  



i termina en:
e|----|
B|----|
G|----|
D|-22-|
A|-22-|
E|-00-|


bueno ojala q les sirva d algo mi tab! la vdd sta es una canción buenísima! d la mejor banda d colombia! 
Toke Rosa!! xD bueno ps ahí reclamos, sugerencias, felicitaciones, fans d toke rosa!! etc. les dejo
 mi correo tankian_28@hotmail.com





Calificar esta versión:
Aviso: Este fichero es trabajo propio de su transcriptor y representa su interpretación personal de la canción. El material contenido en esta página es para exclusivo uso privado, por lo que se prohibe su reproducción o retransmisión, así como su uso para fines comerciales.
Más versiones de Lo Siento, Toke Rosa
Lo Siento
acordes
Lo Siento
tablatura
Lo Siento (ver 2)
tablatura
Descubre más canciones de Toke Rosa