Mi Credo, Tiziano Ferro (tablatura)

Autor: Anónimo | 37743 visualizaciones

Esta canción esta como en un 95%, pero suena muy bien, es una canción muy fácil, 
así que espero que les pueda servir de algo.
Quiero dedicar esta canción a todos los enamorados de aquí de Jerez, Zacatecas,
pero mas que nada quiero dedicar esta canción a Martha Patricia González de Santiago,
que a pesar de que nunca llegamos a ser novios, ella ha estado siempre en mi corazón,
y siempre tendrá un lugar en el.


Pepe Aguilar & Tiziano Ferro “Mi Credo”

Intro: C (Aquí solo se toca Do)
e --3--1--0--1--1-0.---------------------------------------------------------
B -------------------3/5--6-6/8-8/6--6--5----------3--3/5--6--6/8--8/6--6--5-
G ---------------------------------------- 5.--2--5--------------------------

e ----------------
B -----3/5/3------
G --5-------------


C                 F
Por donde vayas iré
G                    C
con una venda en los ojos,
Am               Dm
lo que decidas haré

e --2--2/3--2--------------
B ------------------------
    F                            G7
el amor cuando es verdad, es uno solo

e ---5--3-----------------------
B ---------5--3-----3/5/3-------
G ---------------4---------4----


C                     F
No me preguntes por qué

e ------------------------------
B --3/5--3/5--------1/3--1------
G ------------5--2--------------

G                C
he sido bueno contigo,

e -----------------------------
B --1/3-3/5-3/5-----1/3-1/0----
G --------------4.---------2---

     Am                  Dm
solo se que eres mi religión

e ---------------------
B -----1/3-------------
G --2------------------

          F                     G7
que no importa si lo llaman fanatismo

e --8/7-----8/7-----8/7-----8/7------
B -------8-------8-------8-------8---


Coro:
                     F
Sin ti yo no soy el mismo
         G                C
eres mi credo, pedazo de cielo
          Am                          F
abrázame fuerte, mi trébol de buena suerte
           Dm          F       G7
prefiero morir junto a ti a no verte

e -------3---------------------------------
B -----------------------------------------
G --3/4-----4/3--4/5/4---------------------
D ----------------------5--5/6/5-----------
A --------------------------------5--------

Intro:
    C (Aquí solo se toca Do)
e ---------------------------------------------------------------------------
B --3/5--6-6/8-8/6--6--5-----------3-----3/5--6--6/8--8/6--6--5-----3/5/3----
G -----------------------5.--2--5-----------------------------5--------------

C                     F
No me preguntes por qué
G                 C
he sido bueno contigo,
     Am                   Dm
solo se que eres mi religión
          F                      G
que no importa si lo llaman fanatismo

e --8/7-----8/7-----8/7-----8/7------
B -------8-------8-------8-------8---

Coro:
Sin ti yo no soy... (x2)

                     F
Mi trébol de buena suerte
           Dm         F        G7
Prefiero morir junto a ti a no verte

e --8/7-----8/7-----8/7-----8/7--------8/7-----8/7-----8/7-----8/7-----
B -------8-------8-------8-------8.---------8-------8-------8-------8--

Final:

    C (Aquí solo se toca Do)
e ---------------------------
B --3/5--6-6/8-8/6--6--5----- (x8)acompañado de lo siguiente
G -----------------------5---

e --8/7-----8/7-----8/7-----8/7------
B -------8-------8-------8-------8---
Calificar esta versión:
Aviso: Este fichero es trabajo propio de su transcriptor y representa su interpretación personal de la canción. El material contenido en esta página es para exclusivo uso privado, por lo que se prohibe su reproducción o retransmisión, así como su uso para fines comerciales.
Más versiones de Mi Credo, Tiziano Ferro
Mi Credo
acordes
Mi Credo
tablatura
Descubre más canciones de Tiziano Ferro