El Regalo Más Grande, Tiziano Ferro (tablatura)

Autor: Anónimo | 26998 visualizaciones

Hay Que Bajarle Medio Tono A Las Cuerdas De La Guitarra
Para que suene igual.

1 2 3 4 5 6  >>>   1  2  3  4  5  6
E A D G B E        Eb G# C# F# Bb Eb

INTRO:
Bsus
e----------------- |----------------- |
B------0---------- |------0---------- |
G---------4------- |---------4------- |
D----4------4/6--- |----4------4----- |
A-2--------------- |-2--------------- |
E----------------- |----------------- |

|----------------- |----------------- |
|------0---------- |------0---------- |
|---------4------- |---------4------- |
|----4------4/6--- |----4------4----- |
|-2--------------- | -2-------------- |
|----------------- |----------------- |

                  Eadd9
Quiero hacerte un regalo, algo dulce
e----------------- |----------------- |
B------0---------- |------0---------- |
G---------4------- |---------4------- |
D----4------4/6--- |----4------4----- |
A----------------- |----------------- |
E-0--------------- |-0--------------- |

     Bsus
algo raro  , eh eh eh eh eh
e----------------- |----------------- |
B------0---------- |------0---------- |
G---------4------- |---------4------- |
D----4------4/6--- |----4------4----- |
A-2--------------- |-2--------------- |
E----------------- |----------------- |

                 Eadd9
no un regalo común, de los que perdiste
nunca abriste que olvidaste en un tren
e----------------- |----------------- |
B------0---------- |------0---------- |
G---------4------- |---------4------- |
D----4------4/6--- |----4------4----- |
A----------------- |----------------- |
E-0--------------- |-0--------------- |

          Bsus  F#sus4 - F#
O no aceptaste, eh eh eh eh eh
e----------------- |----------------- |
B------0---------- |----------------- |
G---------4------- |------4----3----- |
D----4------4/6--- |----------------- |
A-2--------------- |----4----4------- |
E----------------- |-2--------------- |

                   C#m7                          F#
de los que abres y lloras, que estás feliz y no finges
e(0)-----------(0,------------- |----------------- |
B-----------0-----(4)-(2)-(0)-- |----------------- | (*)= 2° guitarra
G------6----------------------- |------4----3----- |
D----6----6-------------------- |----------------- |
A-4---------------------------- |----4----4------- |
E------------------------------ |-2--------------- |

                    C#m7             F#
en este día de septiembre, te dedicaré
e(0)-----------(0,------------|----------------- |
B-----------0-----(4)-(2)-(0)-|----------------- |
G------6----------------------|------4----3----- |
D----6----6-------------------|----------------- |
A-4---------------------------|----4----4------- |
Y-----------------------------|-2--------------- |

                  B
mi regalo más grande

B                                       B7 
 quiero donar tu sonrisa a la luna así que
                                       B
de noche quién la mire pueda pensar en ti
porque tu amor para mi es importante

F#                                       C#m7
Y no me importa lo que diga la gente porque
Aun con celos sé que me protegías y se

F#
qué aun cansada tu sonrisa no se marcharía

C#m7
Mañana saldré de viaje y me llevaré

 F#sus4             F#
tu presencia para que
                   B
Sea nunca ida y siempre vuelta

            / A#  G#m
Mi regalo mi más grande

           F#      E
regalo mi más grande

F#                E
eh eh eh eh eh eh eh...

                    Eadd9
Quisiera me regalaras, un sueño escondido
           Bsus      F#sus4  -  F#
o nunca entregado, eh eh eh eh eh
                   C#m7                  F#sus4 - F#
de esos que no sé abrir, delante de mucha gente
               C#m7        F#sus4 - F#
porque el regalo más grande es,
                        B
Sólo nuestro para siempre


B                                       B7 
quiero donar tu sonrisa a la luna así que
                                        B
de noche quién la mire pueda pensar en ti
porque tu amor para mi es importante

F#                                        C#m7
Y no me importa lo que diga la gente porque
Aun con celos sé que me protegías y se

F#
qué aun cansada tu sonrisa no se marcharía

C#m7
Mañana saldré de viaje y me llevaré

 F#sus4          F#
tu presencia para que
Sea nunca ida y siempre…

B                                          A#
y si llegara ahora el fin que sea en un abismo

G#m                                F#
no para odiarme sino para intentar volar y..

E                   F#
si te niegas toda esta extrema agonía

B
si aun la vida te negara, respira la mía

                                  / A#
y estaba atento a no amar antes de encontrarte

G#m                             F#
y descuidaba mi existencia y no me importaba

E                         F#     B
no quiero lastimarme mas amor, amor, amor...


C                                   /B       Am
quiero donar tu sonrisa a la luna así que
                              / G      F
de noche quién la mire pueda pensar en ti
                           G
porque tu amor para mi es importante

C
Y no me importa lo que diga la gente y tu...
                              /B        Am
amor negado, amor robado y nunca devuelto
                               / G          F
mi amor tan grande como el tiempo, en ti me pierdo
                                          G
amor que me habla aquí con tus ojos de frente

eres tú eres tú eres tú eres tú

eres tú eres tú eres tú eres tú
                       C
ay el regalo mi más grande…


Acorde desconocidos

         E A D G B E
Eadd9    0 2 4 1 0 0
Bsus     0 2 4 4 0 0
FA#sus4  2 2 4 4 2 2
B7+      2 2 4 3 4 2

espero les sirva de ayuda,
esta cancion se la dedico a mi mejor amiga
gracias por tu cariño....TKM..
Calificar esta versión:
Aviso: Este fichero es trabajo propio de su transcriptor y representa su interpretación personal de la canción. El material contenido en esta página es para exclusivo uso privado, por lo que se prohibe su reproducción o retransmisión, así como su uso para fines comerciales.
Más versiones de El Regalo Más Grande, Tiziano Ferro
El Regalo Mas Grande
acordes
El Regalo Mas Grande (ver 2)
acordes
El Regalo Mas Grande (ver 3)
acordes
El Regalo Más Grande
tablatura
El Regalo Más Grande (ver 2)
tablatura
Descubre más canciones de Tiziano Ferro