Amor Primero, Timbiriche (bajo)

Autor: Anónimo | 24533 visualizaciones

Esta rola esta facil, solo tiene algunas
variaciones en algunas partes oiganla,
el bajeo tb se puede hacer con una
segunda guitarra



éste es el intro y los versos se tocan igual
G----------------------------------------------------|
D-2---2----2-1------------------------------------1--|
A---2----2-----4----4---4-2-0---0---0-4-2---2--2-4---|
E-----------------4---4-------0---0-------2----------|


(Esta es la variacion en la parte q dice)
Diendo asi....

G------------------------------------------------|
D----------------------6-----------2-------1---4-|
A----------2---4---7-------0---4-------2---------|
E--0---4-----------------------------------------|

(y regresa al modelo del intro)
es solo para ti....

G----------------------------------------------------|
D-2---2----2-1------------------------------------1--|
A---2----2-----4----4---4-2-0---0---0-4-2---2--2-4---|
E-----------------4---4-------0---0-------2----------|

(esta es la parte del final)
uuhhh  uuuhhh

G------------------------------------------------------|
D----------------------2-----------2-------------------|
A----------2---0---4-------0---3-----------------------|
E--0---4-------------------------------0----0/12---0~~~|


y ya saben si tienen dudas, comentarios, anecdotas,
chistes o lo q sea a mi mail jcd_007@hotmail.com

si van a usar esta tab para algun lugar avisenme
no sean ****gandallas***** y si buscan un 
guitarrista ando en busca de banda =)
Calificar esta versión:
Aviso: Este fichero es trabajo propio de su transcriptor y representa su interpretación personal de la canción. El material contenido en esta página es para exclusivo uso privado, por lo que se prohibe su reproducción o retransmisión, así como su uso para fines comerciales.
Más versiones de Amor Primero, Timbiriche
Amor Primero
acordes
Amor Primero
bajo
Descubre más canciones de Timbiriche