Seven Secrets Of The Seven Sphinx, Therion (tablatura) (ver 2)

Autor: zpawn | 41749 visualizaciones



SEVEN SECRETS OF THE SPHINX


Intervalo I (X4)
G|-----------------|-----------------|
D|-----2---3-2-0-2-|-----2---3-2-0-2-|
A|-----2---3-2-0-2-|-----2---3-2-0-2-|
E|-0-0---0---------|-0-0---0---------|
   . .   .           . .   .

Intervalo II (X2)
G|-----2---3-2-0-2-|-----2---3-2-0-2-|
D|-----2---3-2-0-2-|-----2---3-2-0-2-|
A|-0-0---0---------|-0-0---0---------|
E|-----------------|-----------------|
   . .   .           . .   .

Intervalo I (X2)
G|-----------------|-----------------|
D|-----2---3-2-0-2-|-----2---3-2-0-2-|
A|-----2---3-2-0-2-|-----2---3-2-0-2-|
E|-0-0---0---------|-0-0---0---------|
   . .   .           . .   .

Intervalo III (X4)
D|-----------------|-----------------|
A|-----------------|-----------------|
E|-1-1-1-1-1-1-1-1-|-0-1-1-1-5-5-5-5-|
   . . . . . . . .   . . . . . . . .

D|-----------------|-----------------|
A|-----------------|-3---------------|
E|-0-0-0-0-0-0-0-0-|---1-0-0-0-0-0-0-|
   . . . . . . . .   . . . . . . . .

Intervalo IV (X2)
B|---5-------------|---5-------------|
G|--4--------------|--4--------------|
D|-2---------------|-2---------------|


Intervalo III (X4)
D|-----------------|-----------------|
A|-----------------|-----------------|
E|-1-1-1-1-1-1-1-1-|-0-1-1-1-5-5-5-5-|
   . . . . . . . .   . . . . . . . .

D|-----------------|-----------------|
A|-----------------|-3---------------|
E|-0-0-0-0-0-0-0-0-|---1-0-0-0-0-0-0-|
   . . . . . . . .   . . . . . . . .

Intervalo IV (X2)
B|---5-------------|---5-------------|
G|--4--------------|--4--------------|
D|-2---------------|-2---------------|

Intervalo I (X4)
G|-----------------|-----------------|
D|-----2---3-2-0-2-|-----2---3-2-0-2-|
A|-----2---3-2-0-2-|-----2---3-2-0-2-|
E|-0-0---0---------|-0-0---0---------|
   . .   .           . .   .

Intervalo II (X2)
G|-----2---3-2-0-2-|-----2---3-2-0-2-|
D|-----2---3-2-0-2-|-----2---3-2-0-2-|
A|-0-0---0---------|-0-0---0---------|
E|-----------------|-----------------|
   . .   .           . .   .

Intervalo I (X2)
G|-----------------|-----------------|
D|-----2---3-2-0-2-|-----2---3-2-0-2-|
A|-----2---3-2-0-2-|-----2---3-2-0-2-|
E|-0-0---0---------|-0-0---0---------|
   . .   .           . .   .





Intervalo III (X4)
D|-----------------|-----------------|
A|-----------------|-----------------|
E|-1-1-1-1-1-1-1-1-|-0-1-1-1-5-5-5-5-|
   . . . . . . . .   . . . . . . . .

D|-----------------|-----------------|
A|-----------------|-3---------------|
E|-0-0-0-0-0-0-0-0-|---1-0-0-0-0-0-0-|
   . . . . . . . .   . . . . . . . .

Intervalo IV (X2)
B|---5-------------|---5-------------|
G|--4--------------|--4--------------|
D|-2---------------|-2---------------|

Intervalo III (X4)
D|-----------------|-----------------|
A|-----------------|-----------------|
E|-1-1-1-1-1-1-1-1-|-0-1-1-1-5-5-5-5-|
   . . . . . . . .   . . . . . . . .

D|-----------------|-----------------|
A|-----------------|-3---------------|
E|-0-0-0-0-0-0-0-0-|---1-0-0-0-0-0-0-|
   . . . . . . . .   . . . . . . . .

Intervalo IV (X2)
B|---5-------------|---5-------------|
G|--4--------------|--4--------------|
D|-2---------------|-2---------------|

Intervalo V
G|-9-9-9-9---------|-----------------|
D|-9-9-9-9---------|-----------------|
A|-7-7-7-7---------|-7-7-7-7---------|
E|---------0-0-0-0-|---------6-6-6-6-|
           . . . .   . . . . . . . . 



G|-9-9-9-9---------|-----------------|
D|-9-9-9-9---------|-5----4----5-----|
A|-7-7-7-7---------|-5----4----5-----|
E|---------0-0-0-0-|-3----2----3-----|
           . . . .





Comentarios del colaborador: Esta esta corregida, suena mucho mejor que la anterior

Calificar esta versión:
Aviso: Este fichero es trabajo propio de su transcriptor y representa su interpretación personal de la canción. El material contenido en esta página es para exclusivo uso privado, por lo que se prohibe su reproducción o retransmisión, así como su uso para fines comerciales.
Más versiones de Seven Secrets Of The Seven Sphinx, Therion
Seven Secrets Of The Seven Sphinx
tablatura
Seven Secrets Of The Seven Sphinx (ver 2)
tablatura
Descubre más canciones de Therion