Birth Of Venus Illegitima, Therion (tablatura) (ver 2)

Autor: zpawn | 26632 visualizaciones



BIRTH OF VENUS ILLEGITIMA
Riff I (X 2)
E|----------------------------------------------|
B|------------5-----------------5----8--6-------|
G|----5--4-5--5---------5--4-5--5---------9-----|
D|----7--5-7--7---------7--5-7--7---------------|
A|-0-----------------0--------------------------|
E|-----------------0----------------------------|

Riff II (X 2)
G|-----------------|-----------------|-----------------|
D|-----5---4-5-----|-----5---4-5-----|-----5---4-5-----|
A|-----7---5-7-----|-----7---5-7-----|-----7---5-7-----|
E|-0-0---0-----0-0-|-0-0---0-----0-0-|-0-0---0-----0-0-|

G|-------------|-------------|-------------|-------------|
D|-3-----------|-3-----------|-2-----------|-2-----------|
A|-3-----------|-3-----------|-2-----------|-2-----------|
E|-1-----------|-1-----------|-0-----------|-0-----------|

Riff III (Coro) (X 4)
G|-----------------|-----------------|-----------------|
D|-3-3-3-3-3-3-3-3-|-3-3-3-3-3-3-3-3-|-7-7-7-7-9-9-9-9-|
A|-3-3-3-3-3-3-3-3-|-3-3-3-3-3-3-3-3-|-7-7-7-7-9-9-9-9-|
E|-1-1-1-1-1-1-1-1-|-1-1-1-1-1-1-1-1-|-5-5-5-5-7-7-7-7-|

G|-----------------|
D|-7-7-7-7-7-7-7-7-|
A|-7-7-7-7-7-7-7-7-|
E|-5-5-5-5-5-5-5-5-|


Riff IV (X 2)
G|----------------|----------------|----------------|
D|-5----5---4-5---|-5----5---4-5---|-5----5---4-5---|
A|-7----7---5-7---|-7----7---5-7---|-7----7---5-7---|
E|----0---0-----0-|----0---0-----0-|----0---0-----0-|



G|-------------|-------------|
D|-3-----------|-2-----------|
A|-3-----------|-2-----------|
E|-1-----------|-0-----------|

Riff V
G|-----------------|-----------------|-----------------|
D|-3-3-3-3-3-3-3-3-|-3-3-3-3-3-5-5-7-|-3-3-3-3-3-3-3-3-|
A|-3-3-3-3-3-3-3-3-|-3-3-3-3-3-5-5-7-|-3-3-3-3-3-3-3-3-|
E|-1-1-1-1-1-1-1-1-|-1-1-1-1-1-3-3-5-|-1-1-1-1-1-1-1-1-|

G|-----------------|-----------------|-----------------|
D|-3-5-5-7-7-9-9-7-|-3-3-3-3-3-3-3-3-|-3-3-3-3-3-5-5-7-|
A|-3-5-5-7-7-9-9-7-|-3-3-3-3-3-3-3-3-|-3-3-3-3-3-5-5-7-|
E|-1-3-3-5-5-7-7-5-|-1-1-1-1-1-1-1-1-|-1-1-1-1-1-3-3-5-|

                    P.M. ------------------------------|
G|-----------------|-----------------|-----------------|
D|-3-3-3-3-3-3-3-3-|-2-2-2-2-2-2-2-2-|-2-2-2-2-2-2-2-2-|
A|-3-3-3-3-3-3-3-3-|-2-2-2-2-2-2-2-2-|-2-2-2-2-2-2-2-2-|
E|-1-1-1-1-1-1-1-1-|-0-0-0-0-0-0-0-0-|-0-0-0-0-0-0-0-0-|

P.M. -------------|
G|-----------------|
D|-2-2-2-2-2-2-2-2-|
A|-2-2-2-2-2-2-2-2-|
E|-0-0-0-0-0-0-0-0-|

Riff I (X 2)
E|----------------------------------------------|
B|------------5-----------------5----8--6-------|
G|----5--4-5--5---------5--4-5--5---------9-----|
D|----7--5-7--7---------7--5-7--7---------------|
A|-0-----------------0--------------------------|
E|-----------------0----------------------------|






Riff II (X 2)

G|-----------------|-----------------|-----------------|
D|-----5---4-5-----|-----5---4-5-----|-----5---4-5-----|
A|-----7---5-7-----|-----7---5-7-----|-----7---5-7-----|
E|-0-0---0-----0-0-|-0-0---0-----0-0-|-0-0---0-----0-0-|

G|-------------|-------------|-------------|-------------|
D|-3-----------|-3-----------|-2-----------|-2-----------|
A|-3-----------|-3-----------|-2-----------|-2-----------|
E|-1-----------|-1-----------|-0-----------|-0-----------|

Riff III (Coro) (X 4)
G|-----------------|-----------------|-----------------|
D|-3-3-3-3-3-3-3-3-|-3-3-3-3-3-3-3-3-|-7-7-7-7-9-9-9-9-|
A|-3-3-3-3-3-3-3-3-|-3-3-3-3-3-3-3-3-|-7-7-7-7-9-9-9-9-|
E|-1-1-1-1-1-1-1-1-|-1-1-1-1-1-1-1-1-|-5-5-5-5-7-7-7-7-|

G|-----------------|
D|-7-7-7-7-7-7-7-7-|
A|-7-7-7-7-7-7-7-7-|
E|-5-5-5-5-5-5-5-5-|

Riff VI (X 3)
G|-----------------|-----------------|-----------------|
D|-3-3-3-3-3-3-3-3-|-3-3-3-3-3-5-5-7-|-3-3-3-3-3-3-3-3-|
A|-3-3-3-3-3-3-3-3-|-3-3-3-3-3-5-5-7-|-3-3-3-3-3-3-3-3-|
E|-1-1-1-1-1-1-1-1-|-1-1-1-1-1-3-3-5-|-1-1-1-1-1-1-1-1-|

G|-----------------|
D|-3-5-5-7-7-9-9-7-|
A|-3-5-5-7-7-9-9-7-|
E|-1-3-3-5-5-7-7-5-|








Riff VII
                    P.M. ------------------------------|
G|-----------------|-----------------|-----------------|
D|-3-3-3-3-3-3-3-3-|-2-2-2-2-2-2-2-2-|-2-2-2-2-2-2-2-2-|
A|-3-3-3-3-3-3-3-3-|-2-2-2-2-2-2-2-2-|-2-2-2-2-2-2-2-2-|
E|-1-1-1-1-1-1-1-1-|-0-0-0-0-0-0-0-0-|-0-0-0-0-0-0-0-0-|

P.M. -------------|
G|-----------------|
D|-2-2-2-2-2-2-2-2-|
A|-2-2-2-2-2-2-2-2-|
E|-0-0-0-0-0-0-0-0-|

Riff III (Coro) (X 4)
G|-----------------|-----------------|-----------------|
D|-3-3-3-3-3-3-3-3-|-3-3-3-3-3-3-3-3-|-7-7-7-7-9-9-9-9-|
A|-3-3-3-3-3-3-3-3-|-3-3-3-3-3-3-3-3-|-7-7-7-7-9-9-9-9-|
E|-1-1-1-1-1-1-1-1-|-1-1-1-1-1-1-1-1-|-5-5-5-5-7-7-7-7-|

G|-----------------|
D|-7-7-7-7-7-7-7-7-|
A|-7-7-7-7-7-7-7-7-|
E|-5-5-5-5-5-5-5-5-|

Riff V X2
G|-----------------|-----------------|-----------------|
D|-3-3-3-3-3-3-3-3-|-3-3-3-3-3-3-3-3-|-7-7-7-7-7-7-7-7-|
A|-3-3-3-3-3-3-3-3-|-3-3-3-3-3-3-3-3-|-7-7-7-7-7-7-7-7-|
E|-1-1-1-1-1-1-1-1-|-1-1-1-1-1-1-1-1-|-5-5-5-5-5-5-5-5-|

G|-----------------|
D|-7-7-7-7-7-7-7-7-|
A|-7-7-7-7-7-7-7-7-|
E|-5-5-5-5-5-5-5-5-|

Riff Salida
P.M. -------------------------------------------------|
G|-----------------|-----------------|-----------------|
D|-2-2-2-2-2-2-2-2-|-2-2-2-2-2-2-2-2-|-2-2-2-2-2-2-2-2-|
A|-2-2-2-2-2-2-2-2-|-2-2-2-2-2-2-2-2-|-2-2-2-2-2-2-2-2-|
E|-0-0-0-0-0-0-0-0-|-0-0-0-0-0-0-0-0-|-0-0-0-0-0-0-0-0-|





Comentarios del colaborador: bueno despues de tocar varias veses la otra que subi me di cuenta de algunos errores, ya esta mucho mejor, me atreveria a desir PERFECTA

Calificar esta versión:
Aviso: Este fichero es trabajo propio de su transcriptor y representa su interpretación personal de la canción. El material contenido en esta página es para exclusivo uso privado, por lo que se prohibe su reproducción o retransmisión, así como su uso para fines comerciales.
Más versiones de Birth Of Venus Illegitima, Therion
Birth Of Venus Illegitima
tablatura
Birth Of Venus Illegitima (ver 2)
tablatura
Descubre más canciones de Therion