Cherry Bomb, The Runaways (tablatura)

Autor: datk95 | 26941 visualizaciones



CHERRY BOMB

Verse 1
e|---------------------------------------------|
B|---------------------------------------------|
G|-------------------------------------------7-| 3x
D|-9-9-9-9-9-9-9-9-9-9-9-9-9-9-9-9-9-9-9-9-9-7-|
A|-9-9-9-9-9-9-9-9-9-9-9-9-9-9-9-9-9-9-9-9-9-5-|
E|-7-7-7-7-7-7-7-7-7-7-7-7-7-7-7-7-7-7-7-7-7---|


Chorus
e|-------------------------|
B|-------------------------|
G|-----------------9-------| 2x
D|-4-7-9-9-9-9-9-9-9-9-9-9-|
A|-4-7-9-9-9-9-9-9-7-9-9-9-|
E|-2-5-7-7-7-7-7-7---7-7-7-|

Verse 2 is the same than Verse 1

Chorus

Solo
e|---------------------------------------------|
B|---------------------------------------------|
G|---------------------------------------------|
D|-9-9-9-9-9-9-9-9-9-9-9-9-9-9-9-9-9-9-9-9-9-9-|
A|-9-9-9-9-9-9-9-9-9-9-9-9-9-9-9-9-9-9-9-9-9-9-|
E|-7-7-7-7-7-7-7-7-7-7-7-7-7-7-7-7-7-7-7-7-7-7-|

Chorus

Verse 3 changes higher
e|---------------------------------------------|
B|---------------------------------------------|
G|-------------------------------------------9-| 3x
D|-11-11-11-11-11-11-11-11-11-11-11-11-11-11-9-|
A|-11-11-11-11-11-11-11-11-11-11-11-11-11-11-7-|
E|--9--9--9--9--9--9--9--9--9--9--9--9--9--9---|

Chorus changes higher too
e|--------------------------|
B|--------------------------|
G|-----------------------11-|
D|-6-9-11-11-11-11-11-11-11-|
A|-6-9-11-11-11-11-11-11--9-|
E|-4-7-9--9--9--9--9--9-----|





Calificar esta versión:
Aviso: Este fichero es trabajo propio de su transcriptor y representa su interpretación personal de la canción. El material contenido en esta página es para exclusivo uso privado, por lo que se prohibe su reproducción o retransmisión, así como su uso para fines comerciales.
Más versiones de Cherry Bomb, The Runaways
Cherry Bomb
tablatura
Cherry Bomb (ver 2)
tablatura
Descubre más canciones de The Runaways