Lucifer´s Angel, The Rasmus (bajo)

Autor: shadow070894 | 34323 visualizaciones



Intro
G|-----------------------------------------------------------------------------|
D|---------------------------------------2-2--2-454-2-2-454--------------------|
A|-2-2--2-454-2-2-454-0-0--0-454-0-0-454--------------------2-2--2-454-2-2-454-|
E|-----------------------------------------------------------------------------|

Verso
G|-----------------------------|
D|-----------------------------|
A|-222222-555555---------------|
E|---------------333333-222222-|x4

Coro
G|-----------------------------------|
D|-----------------------------------|
A|-255---255---55--22222--55---------|
E|------------3----------3----22222--|x2

Intermedio
G|-----------------------------------------------------------------------------|
D|---------------------------------------2-2--2-454-2-2-454--------------------|
A|-2-2--2-454-2-2-454-0-0--0-454-0-0-454--------------------2-2--2-454-2-2-454-|
E|-----------------------------------------------------------------------------|x2

Verso
G|-----------------------------|
D|-----------------------------|
A|-222222-555555---------------|
E|---------------333333-222222-|x4

Coro
G|-----------------------------------|
D|-----------------------------------|
A|-255---255---55--22222--55---------|
E|------------3----------3----22222--|x2

Intermedio
G|-----------------------------------------------------------------------------|
D|---------------------------------------2-2--2-454-2-2-454--------------------|
A|-2-2--2-454-2-2-454-0-0--0-454-0-0-454--------------------2-2--2-454-2-2-454-|
E|-----------------------------------------------------------------------------|

Puente
G|-----------------------------------------------|
D|-----------------------------------------------|
A|-2-----2------2-----2------2-----2------2------|
E|--32-22--------32-22--------32-22--------32----|

Coro
G|-----------------------------------|
D|-----------------------------------|
A|-255---255---55--22222--55---------|
E|------------3----------3----22222--|x2

Final
G|----------------------------------------------------------|
D|---------------------------------------2-2--2-454-2-2-454-|
A|-2-2--2-454-2-2-454-0-0--0-454-0-0-454--------------------|
E|----------------------------------------------------------|x3





Comentarios del colaborador: la cancion la seque yo despues de mucho esfuerzo pero no la pude perfeccionar aun asi es buena espero les sirva y lleguen a poder ayudarme a arreglarla

Calificar esta versión:
Aviso: Este fichero es trabajo propio de su transcriptor y representa su interpretación personal de la canción. El material contenido en esta página es para exclusivo uso privado, por lo que se prohibe su reproducción o retransmisión, así como su uso para fines comerciales.
Más versiones de Lucifer´s Angel, The Rasmus
Lucifer´s Angel
acordes
Lucifer´s Angel (ver 2)
acordes
Lucifer´s Angel
bajo
Descubre más canciones de The Rasmus