In The Shadows, The Rasmus (bajo)

Autor: shadow070894 | 35709 visualizaciones



Introducción:

G|----------------------------------|---------------------------------|
D|----------------------------------|---------------------------------|
A|-5554540------------45454------4--|-5554540------------45454--------|
E|---------222-00-457-------24555-5-|---------222-00-457-------222222-|


Verso:

G|--------------------------------------------------------------------------------------|
D|--------------------------------------------------------------------------------------|
A|-2222------2222-----02222------2222-----4444-5555-----02222------45555------02222-----|
E|------2222------2222------2222------222-----------2222------2222-------2222-------532-| 


Coro:

G|-----------------------------------------------------------------------|
D|-----------------------------------------------------------------------|
A|-55555555----------22222222----------55555555----------22222222--------|
E|----------22222222----------22222222----------22222222----------22445--|


Intermedio después del Coro:

G|----------------------------------|---------------------------------|
D|----------------------------------|---------------------------------|
A|-5554540------------45454------4--|-5554540------------45454--------|
E|---------222-00-457-------24555-5-|---------222-00-457-------22445--|


Puente:

G|---------------------------------------------|
D|---------------------------------------------|
A|-555555-77-999999-00-5555555-44--------------|
E|--------------------------------222525-(532)-|





Calificar esta versión:
Aviso: Este fichero es trabajo propio de su transcriptor y representa su interpretación personal de la canción. El material contenido en esta página es para exclusivo uso privado, por lo que se prohibe su reproducción o retransmisión, así como su uso para fines comerciales.
Más versiones de In The Shadows, The Rasmus
In The Shadows
acordes
In The Shadows
tablatura
In The Shadows (ver 2)
tablatura
In The Shadows
bajo
In The Shadows (ver 2)
bajo
Descubre más canciones de The Rasmus