Guilty, The Rasmus (bajo)

Autor: shadow070894 | 26778 visualizaciones



Guilty

Piano Intro:

|-----------------------------|
|-----------------------------|
|-6----2--4--1---2-4----------|
|-----------------------------|

|-----------------------------|-----------------------------|
|-----------------------------|-----------------------------|
|-6-6-6-2-2-2-4-4-4-4--1--2-4-|-6-6-6-2-2-2-4-4-4-4--1--2-4-|
|-----------------------------|-----------------------------|

Verso:

|-----------------------------|-----------------------------|
|-----------------------------|-----------------------------|
|-6----2-2-4-4-1--2-4---------|-6----2-2-4-4-1--2-4---------|
|-----------------------------|-----------------------------|

Pre coro: 

|-----------------------------|
|-----------------------------|
|-1-1-2----1-1-2----1-1-2-----|
|-----------------------------|

Coro: 

|-----------------------------|
|-----------------------------|
|-6----2--4--1---2-4----------|
|-----------------------------|

Verso:

|-----------------------------|-----------------------------|
|-----------------------------|-----------------------------|
|-6----2-2-4-4-1--2-4---------|-6----2-2-4-4-1--2-4---------|
|-----------------------------|-----------------------------|

Pre coro

|-----------------------------|
|-----------------------------|
|-1-1-2----1-1-2----1-1-2-----|
|-----------------------------|

Coro

|-----------------------------|
|-----------------------------|
|-6----2--4--1---2-4----------|
|-----------------------------|

Puente: 

|-------------|-------------|-------------|-------------|
|-------------|-------------|-------------|-------------|
|-2-4---1-2-4-|-2-4---1-2-4-|-2-4---1-2-4-|-2-4---1-2-4-|
|-----2-------|-----2-------|-----2-------|-----2-------|

|----------------8--10--11-----11--11----11--10--8-------------------|
|------8--9--11-----------------------------------11--9--8-----------|
|--11----------------------------------------------------------------|
|--------------------------------------------------------------------|

Final:

|-----------------------------|
|-----------------------------|
|-6-6-6-2-2-2-4-4-4-4--1--2-4-|
|-----------------------------|





Calificar esta versión:
Aviso: Este fichero es trabajo propio de su transcriptor y representa su interpretación personal de la canción. El material contenido en esta página es para exclusivo uso privado, por lo que se prohibe su reproducción o retransmisión, así como su uso para fines comerciales.
Más versiones de Guilty, The Rasmus
Guilty
acordes
Guilty
bajo
Descubre más canciones de The Rasmus