Tattooed Love Boys, The Pretenders (tablatura)

Autor: azzulito | 17448 visualizaciones



Tattooed Love Boys ¬? The Pretenders
Gtr I (E A D G B E)|||Gtr II (E A D G B E
Intro Gtr II/Gtr I
    A                     G			x2
1|--------9----|-------|---------10----|--------------|
2|----10-------|-------|-----10--------|---------10---|
3|-9-----------|-------|-11------------|-----11-------|

Verso
  A                     G                              4x
1||---------9----|-------|---------10----|--------------||
2||o----10-------|-------|-----10--------|---------10--o||
3||--9-----------|-------|-11------------|-----11-------||

Coro
 E5  F   E5  F     E5  F   E5  F     G   G#  G   G#    G   G#  G   G#
6||--0-0-1-1-0-0-1-1-|-0-0-1-1-0-0-1-1-|-3-3-4-4-3-3-4-4-|-3-3-4-4-3-3-4-4---|| 4x

Verse x5
Chorus
Interlude
  BbA     G     F  G                BbA                G     F  G              F    BbA
3|-------|-4--4--2--4--|---------|---------|3|-4--4--2--4-4-|-(4)-4-4--2--|--------|3||--4--4--2--4-4-|-(4)-4-4--2--4---||
4|-------|-5--5--3--5--|---------|---------|4|-5--5--3--5-5-|-(5)-5-5--3--|--------|4||--5--5--3--5-5-|-(5)-5-5--3--5---||
5|-------|-5--5--3--5--|---------|---------|5|-5--5--3--5-5-|-(5)-5-5--3--|--------|
6|-------|-3--3--1--3--|---------|---------|6|-3--3--1--3-3-|-(3)-3-3--1--|--------|

      G     F  G              F  G   3x
5||o-5--5--3--5-5-|-(5)-5-5--3--5--o||
6||--3--3--1--3-3-|-(3)-3-3--1--3---||
                                   
 Solo
A		            	                G
	2|-14----14----|-14----14\----|		 2|-12----12----|-12\----|
	3|-14----14----|-14----14\----| 		 3|-12----12----|-12\----|
	4|-14----14----|-14----14\----|		 4|-12----12----|-12\----|

 A				 G
1|-----21-17----21-17----|-21b22--(21)\----|  		 1|---------|---------|-19-15----17-15----19-15-|----17-15----19\----|
2|-17--------17-------17-	                   		2|---------|---------|-------15-------15-------|-15-------15--------|

  A
2|---------|-------|-14-14-14-15-15-15-14-14-|-14-15-15-15-14\----|
3|---------|-------|-14-14-14-14-14-14-14-14-|-14-14-14-14-14\----|

  G		           x2            A
2|---------|---------|-12------------|          4|---------|-------|------------|--2---2-2-2-2-2-2-2----|
3|---------|---------|-----12--------|          5|---------|-------|------------|--0---0-0-0-0-0-0-0----|
4|---------|---------|---------12----|          6|---------|-------|-3b5--------|-(3)-------------------|

  G
6|---------|---------|-2-3-3-3-2-3-3-3-|-2-3-3-3-2-3-3-3-|
 
 A
1|------------|------------|-12-------12-------|-12-------12-------(12)----|
2|------------|------------|-15b17----15b17----|-15b17----15b17r===(15)----|

  G
                       TP           TP
6|---------|---------|-15--------|-(15)S=====3--|

Verse x7
Chorus

Outro
  A                     G
 |--------9----|-------|---------10----|-------------|-10--------|-----*|
|----10-------|-------|-----10--------|---------10--|-----------|-----*|
|-9-----------|-------|-11------------|-----11------|-----------|-----*|





Calificar esta versión:
Aviso: Este fichero es trabajo propio de su transcriptor y representa su interpretación personal de la canción. El material contenido en esta página es para exclusivo uso privado, por lo que se prohibe su reproducción o retransmisión, así como su uso para fines comerciales.