Roxanne, The Police (tablatura)

Autor: rastalive | 29401 visualizaciones



Intro

e|-3--3--3--3----3--3--3--3----3--3--3--3----1--1--1--1----6--6--6--6----|
B|-3--3--3--3----3--3--3--3----3--3--3--3----3--3--3--3----8--8--8--8----|
G|-3--3--3--3----3--3--3--3----3--3--3--3----2--2--2--2----7--7--7--7----|
D|---------------------------------------------------------8--8--8--8----|
A|-----------------------------------------------------------------------|
E|-----------------------------------------------------------------------|


e|-5--5--5--5----3--3--3--3----1--1--1--1-B|-6--6--6--6----4--4--4--4----1--1--1--1--3----------------------------|
G|-7--7--7--7----3--3--3--3----3--3--3--3--5----------------------------|
D|-7--7--7--7----5--5--5--5----x--x--x-------|
A|-----------------------------3--3--3--3--5----------------------------|
E|------------------------------------------3----------------------------|-3----------------------------|


1º


e|-3--3--3--3----3--3--3--3----3--3--3--3----1--1--1--1----6--6--6--6----|
B|-3--3--3--3----3--3--3--3----3--3--3--3----3--3--3--3----8--8--8--8----|
G|-3--3--3--3----3--3--3--3----3--3--3--3----2--2--2--2----7--7--7--7----|
D|---------------------------------------------------------8--8--8--8----|
A|-----------------------------------------------------------------------|
E|-----------------------------------------------------------------------|


e|-5--5--5--5----3--3--3--3----1--1--1--1--3----------------------------|
B|-6--6--6--6----4--4--4--4----1--1--1--1--3----------------------------|
G|-7--7--7--7----3--3--3--3----3--3--3--3--5----------------------------|
D|-7--7--7--7----5--5--5--5----x--x--x--x------------|
A|-----------------------------3--3--3--3--5----------------------------|
E|------------------------------------------3----------------------------|


2º

e|-3--3--3--3----1--1--1--1----3--3--3--3----3--3--3--3----3--3--3--3----|
B|-4--4--4--4----1--1--1--1----6--6--6--6----3--3--3--3----4--4--4--4----|
G|-3--3--3--3----3--3--3--3----5--5--5--5----5--5--5--5----3--3--3--3----|
D|-5--5--5--5----x--x--x--x----x--x--x--x---x-x-x-x-5-5---5--5--|
A|---------------3--3--3--3----3--3--3--3----3--3--3--3------------------|
E|-----------------------------------------------------------------------|


e|-1--1--1--1--3--------------------------------------------------------|
B|-1--1--1--1--3--------------------------------------------------------|
G|-3--3--3--3--5--------------------------------------------------------|
D|-x--x--x--x-------5--5--5----5--5--5--5------------------|
A|-3--3--3--2--5----5--5--5--5----5--5--5--5----------------------------|
E|--------------3----3--3--3--3----3--3--3--3----------------------------|


3º


e|-----------------------------------------------------------------------|
B|-----------------------------------------------------------------------|
G|-5--3----3--3--3----3--3--3--3----3--3--3--3---------------------------|
D|-5--3----3--3--3----3--3--3--3----3--3--3--3---------------------------|
A|-3--1----1--1--1----1--1--1--1----1--1--1--1---------------------------|
E|-----------------------------------------------------------------------|


e|-----------------------------------------------------------------------|
B|-----------------------------------------------------------------------|
G|-8-10----10--10--10----10--10--10--10----10--10--10--10----------------|
D|-8-10----10--10--10----10--10--10--10----10--10--10--10----------------|
A|-6--8-----8---8---8-----8---8---8---8-----8---8---8---8----------------|
E|-----------------------------------------------------------------------|


e|-----------------------------------------------------------------------|
B|-----------------------------------------------------------------------|
G|-----------------------------------------------------------------------|
D|-3--5----5--5--5----5--5--5--5----5--5--5--5---------------------------|
A|-3--5----5--5--5----5--5--5--5----5--5--5--5---------------------------|
E|-1--3----3--3--3----3--3--3--3----3--3--3--3---------------------------|


e|-----------------------------------------------------------------------|
B|-----------------------------------------------------------------------|
G|-5--3----3--3--3----3--3--3--3----3--3--3--3---------------------------|
D|-5--3----3--3--3----3--3--3--3----3--3--3--3---------------------------|
A|-3--1----1--1--1----1--1--1--1----1--1--1--1---------------------------|
E|-----------------------------------------------------------------------|


e|-----------------------------------------------------------------------|
B|-----------------------------------------------------------------------|
G|-8-10----10--10--10----10--10--10--10----10--10--10--10-------5--------|
D|-8-10----10--10--10----10--10--10--10----10--10--10--10----3--x--------|
A|-6--8-----8---8---8-----8---8---8---8-----8---8---8---8----3--5--------|
E|-----------------------------------------------------------1--3--------|

4º



e|-3--3--3--3----3--3--3--3----3--3--3--3----3--3--3--3------------------|
B|-3--3--3--3----3--3--3--3----3--3--3--3----3--3--3--3------------------|
G|-3--3--3--3----3--3--3--3----3--3--3--3----3--3--3--3------------------|
D|-----------------------------------------------------------------------|
A|-----------------------------------------------------------------------|
E|-----------------------------------------------------------------------|






Comentarios del colaborador: creo q esta bastante bien :D cualquier duda a mi mail

Calificar esta versión:
Aviso: Este fichero es trabajo propio de su transcriptor y representa su interpretación personal de la canción. El material contenido en esta página es para exclusivo uso privado, por lo que se prohibe su reproducción o retransmisión, así como su uso para fines comerciales.
Más versiones de Roxanne, The Police
Roxanne
acordes
Roxanne
tablatura
Descubre más canciones de The Police