Message In A Bottle, The Police (tablatura) (ver 2)

Autor: afllle | 25160 visualizaciones



Message In A Bottle
                       The Police 

e[---------------------------
B[----0---------------0-----3
G[-----------2-----0-------2-
D[--2--------------------0---
A[0--------3-----------------
E[------1-------3------------

e[-----------------------------
B[----0---------------0-----3h5
G[-----------2-----0-------2---
D[--2--------------------0-----
A[0--------3-------------------
E[------1-------3--------------





Calificar esta versión:
Aviso: Este fichero es trabajo propio de su transcriptor y representa su interpretación personal de la canción. El material contenido en esta página es para exclusivo uso privado, por lo que se prohibe su reproducción o retransmisión, así como su uso para fines comerciales.
Más versiones de Message In A Bottle, The Police
Message In A Bottle
acordes
Message In A Bottle (ver 2)
acordes
Message In A Bottle (ver 3)
acordes
Message In A Bottle
tablatura
Message In A Bottle (ver 2)
tablatura
Descubre más canciones de The Police