Your Love, The Outfield (tablatura)

Autor: tatoman | 41555 visualizaciones

YOUR LOVE ? THE OUTFIELDS

INTRO
      E   C#m   B
E|----------------------------------------|
B|----------------------------------------|
G|---9----6----4--------------------------|
D|---9----6----4--------------------------|               X 4
A|---7----4----2--------------------------|
E|----------------------------------------| 

ESTROFA 1
(UNA SOLA GUITARRA)

Josie's on a vacation far away,      come around and talk it over

    E    C#m    B
E|----------------------------------------|
B|----------------------------------------|
G|---9----6----4--------------------------|
D|---9----6----4--------------------------|             
A|---7----4----2--------------------------|
E|----------------------------------------| 


so many things that i want to say,    you know i like my girls a little bit older

     E  C#m    B
E|----------------------------------------|
B|----------------------------------------|
G|---9----6----4--------------------------|
D|---9----6----4--------------------------|               
A|---7----4----2--------------------------|
E|----------------------------------------| 

CORO 1

i just wanna use your love tonight
     E    C#m   B
E|----------------------------------------|
B|----------------------------------------|
G|--------6----4--------------------------|
D|---7----6----4--------------------------|               
A|---7----4----2--------------------------|
E|---5------------------------------------| 

i don't wanna lose your love tonight
E|----------------------------------------|
B|----------------------------------------|
G|---6---------4--------------------------|
D|---6----7----4--------------------------|               
A|---4----7----2--------------------------|
E|--------5-------------------------------| 

ESTROFA 2
(ENTRA TODA LA BANDA)


I ain't got many friends left to talk to,           no one's around when i'm in trouble
     E  C#m    B
E|----------------------------------------|
B|----------------------------------------|
G|---9----6----4--------------------------|
D|---9----6----4--------------------------|               
A|---7----4----2--------------------------|
E|----------------------------------------| 


you know i'd do anything for you,       stay the night, we'll keep it under cover
     E   C#m    B
E|----------------------------------------|
B|----------------------------------------|
G|---9----6----4--------------------------|
D|---9----6----4--------------------------|               
A|---7----4----2--------------------------|
E|----------------------------------------| 


CORO 2
(La guitarra 1 hace las 5, la guitarra 2 arpejea)

i just wanna use your love tonight
    E    C#m    B
E|----------------------------------------|
B|----------------------------------------|
G|--------6----4--------------------------|
D|---7----6----4--------------------------|               
A|---7----4----2--------------------------|
E|---5------------------------------------| 

i don't wanna lose your love tonight
E|----------------------------------------|
B|----------------------------------------|
G|---6---------4--------------------------|
D|---6----7----4--------------------------|               
A|---4----7----2--------------------------|
E|--------5-------------------------------| 









ESTRIBILLO

     G        A           G         A  
E|---3--------------------3-----------------|
B|---3--5-5/7-5-3-2-3-----3--5-7-7/8-7-5-3--|
G|---4--------------------4-----------------|
D|---5--------------------5-----------------|    X2         
A|---5--------------------5-----------------|
E|---3--------------------3-----------------| 



Try and stop my hands from shaking,         something in my mind's not making sense
     G        A                    G        A  
E|---3-----------------------------3-----------------|
B|---3--5-5/7-5-3-2-3--------------3--5-7-7/8-7-5-3--|
G|---4-----------------------------4-----------------|
D|---5-----------------------------5-----------------|             
A|---5-----------------------------5-----------------|
E|---3-----------------------------3-----------------| 



it's been awhile since we've been all alone,    i can't hide the way i'm feeling
     G      A                         G        A  
E|---3--------------------------------3-----------------|
B|---3--5-5/7-5-3-2-3-----------------3--5-7-7/8-7-5-3--|
G|---4--------------------------------4-----------------|
D|---5--------------------------------5-----------------|             
A|---5--------------------------------5-----------------|
E|---3--------------------------------3-----------------| 


ESTROFA 3

As you leave me please would you close the door,          and don't forget what i told you
     E   C#m    B
E|----------------------------------------|
B|----------------------------------------|
G|---9----6----4--------------------------|
D|---9----6----4--------------------------|               
A|---7----4----2--------------------------|
E|----------------------------------------| 

just cause you're right, that don't mean i'm wrong,      another shoulder to cry upon
     E   C#m    B
E|----------------------------------------|
B|----------------------------------------|
G|---9----6----4--------------------------|
D|---9----6----4--------------------------|               
A|---7----4----2--------------------------|
E|----------------------------------------| 
CORO FINAL

i just wanna use your love tonight
    E    C#m    B
E|----------------------------------------|
B|----------------------------------------|
G|--------6----4--------------------------|
D|---7----6----4--------------------------|               
A|---7----4----2--------------------------|
E|---5------------------------------------| 

i don't wanna lose your love tonight ?????.yeah
E|----------------------------------------|
B|----------------------------------------|
G|---6---------4--------------------------|
D|---6----7----4--------------------------|               
A|---4----7----2--------------------------|
E|--------5-------------------------------| 

CAMBIO
i just wanna use your love tonight
E|----------------------------------------|
B|----------------------------------------|
G|---6---------4--------------------------| ----------|     
D|---6----7----4--------------------------|            |    
A|---4----7----2--------------------------|            |
E|--------5-------------------------------|            |
                                                                                                         |------- X2
i don't wanna lose your love tonight                                                 |
E|----------------------------------------|            |
B|----------------------------------------|            | 
G|---6---------4--------------------------|----------- |
D|---6----7----4--------------------------|               
A|---4----7----2--------------------------|
E|--------5-------------------------------| 

lose your love (3x)
Guitarra 1
E|----------------------------------------|
B|----------------------------------------|
G|---6---------4--------------------------|
D|---6----7----4--------------------------|               
A|---4----7----2--------------------------|
E|--------5-------------------------------| 

Guitarra 2
E|----------9-9-------------9-9---------9-----9-----9-----9-----9-|
B|--9-9-7-7-----7-9-9-9-7-7-----7-9-9-7---9-7---9-7---9-7---9-7---|
G|----------------------------------------------------------------|
D|----------------------------------------------------------------|               
A|----------------------------------------------------------------|
E|----------------------------------------------------------------|

(estos dos riff x3 y muere en un C#m).
Calificar esta versión:
Aviso: Este fichero es trabajo propio de su transcriptor y representa su interpretación personal de la canción. El material contenido en esta página es para exclusivo uso privado, por lo que se prohibe su reproducción o retransmisión, así como su uso para fines comerciales.
Más versiones de Your Love, The Outfield
Your Love
acordes
Your Love
tablatura
Descubre más canciones de The Outfield