Mr Brightside, The Killers (bajo)

Autor: fherxo | 46326 visualizaciones



Intro

Começa em "It started out with a kiss..."

G--66666666-55555555-------------------|
D--------------------4444444444444444--|
A--------------------------------------|
E--------------------------------------|

Depois no verso

G-------------------------------------|
D-------------------------------------|   
A--44444444-33333333------------------|
E--------------------2222222222222222-|

G-------------------------------------|
D-------------------/4444444444444444-|
A--44444444-33333333------------------|
E-------------------------------------|

Pré-refrão

G----------------------------------------------------------|
D----------------------------------------------------------|
A----------8-6-4---------8-6-4---------6-4-3---------1-3-4-|
E--6-6-6-6-------4-4-4-4-------2-2-2-2-------2-2-2-2-------|

G--------------------------------------------------------------|
D-------------------------------------------------------444444-|
A----------8-6-4---------8-6-4---------------------------------|
E--6-6-6-6-------4-4-4-4-------1222222212222222122212221-------|

refrão

(Parte A)  G--------------------------------------|    (x 2)
           D-----------44444444-------------------|
           A--44444444----------------------------|
           E--------------------66666666-44444444-|

G--------------------------------------|
D--------------------------------------|
A--44444444----------------------------|
E-----------22222222-66666666-44444444-|

G--------------------------------------|
D-----------44444444-88888888-66666666-|
A--44444444----------------------------|
E--------------------------------------|

Repete o refrão 
Parte A

Verso 2

G-------------------------------------|
D-------------------------------------|   
A--44444444-33333333------------------|
E--------------------2222222222222222-|

G-------------------------------------|
D-------------------------------------|   
A--44444444-33333333--------------9/4-|
E--------------------2----------------|

G-------------------------------------|
D-------------------------------------|   
A--44444444-33333333------------------|
E--------------------2222222222222222-|

G-------------------------------------|
D--------------------4444444444444444-|   
A--44444444-33333333------------------|
E-------------------------------------|

Volta ao pré-refrão...

Volta ao Refrão...

"Parada"

G------------------------------------|  (x 2)
D--3*--------------------------------|   
A-----------4*-----------------------|
E-------------------6*------4*-------|

Volta ao refrão
Final
G---------------------------------------|
D-----------44444444-88888888-6---------|
A--44444444---------------------6-------|
E---------------------------------4*----|





Calificar esta versión:
Aviso: Este fichero es trabajo propio de su transcriptor y representa su interpretación personal de la canción. El material contenido en esta página es para exclusivo uso privado, por lo que se prohibe su reproducción o retransmisión, así como su uso para fines comerciales.
Más versiones de Mr Brightside, The Killers
Mr Brightside
acordes
Mr Brightside
tablatura
Mr Brightside
bajo
Mr Brightside
bateria
Mr Brightside (ver 2)
bateria
Descubre más canciones de The Killers