Glamorous Indie Rock And Roll, The Killers (bajo)

Autor: omegax_zerox | 26258 visualizaciones



Verse
G|-----8-8-------------------------------------------------------------
D|-6h8-----8-8-8------------------------10-10--------------------------
A|---------------6/0---------------8h10-------10-10-10-----------------
E|-----------------------------------------------------8/0-------------

G|-----------------------------------------------------------------
D|---------------------------------6h8-8-8-8-8-8-8/0---------------
A|-6h8-8-8-8-8-8-8/0-----------------------------------------------
E|-----------------------------------------------------------------

Chorus
G|-----------------------------------------------------------------
D|-----------------------------------------------------------------
A|-6-6-6-6-6-6-6-6-6-6-6-6-6-6-8-8-3-3-3-3-3-3-3-3-3-3-3-3-3-3-3-3-
E|-----------------------------------------------------------------

G|-----------------------------------------------------------------
D|-----------------------------------------------------------------
A|--------/8-8-8-8-------------------------------------------------
E|-1-1-1-1---------1-1-1-1-1-1-1-1-6-6-6-6-6-6-6-6-6-6-6-6-6-6-6-6-

Bridge
G|-----------------------------------------------------------------
D|-----------------------------------------------------------------
A|---------------------------------3-3-3-3-3-------1-1-1-1-3-1-3---
E|-1-1-1-1-1-------4-4-4-4-4---------------------------------------

G|-----------------------------------------------------------------
D|-----------------------------------------------------------------
A|---------------------------------3-3-3-3-3-------1-1-1-1-1-1-3---
E|-1-1-1-1-1-------4-4-4-4-4---------------------------------------

G|-----------------------------------------------------------------
D|-----------------------------------------------------------------
A|-8-8-8-8-8-8-8-8-----------------3-3-3-3-3-3-3-3-----------------
E|-----------------4-4-4-4-4-4-4-4-----------------6-6-6-6-6-6-6-6-

G|-----------------------------------------------------------------
D|-------------------------------------------------------5-6-5-6-7-
A|-----------------------------------------5---5-6-8-6-8-----------
E|-4-4-4-4-4-4-4-4-4-4-4-4-4-4-4-4-6-5-6-8---8---------------------

G|-----------------------------------------------------------------
D|-9~-----------------------------------------6---4-6-4-6---6--4-6-
A|-----------------------------------------------------------------
E|---------------------------------4~------------------------------

G|-----------------------------------------------------------------
D|-----------------4-4---------------------------------------------
A|-4-4-6-6-7-7-6-6-----4-4-----------------------------------------
E|-------------------------2~----2/7---7--6-7-6-7---7h9p7-4--------

G|-----------------------------------------------------------------
D|-6---4-6-4-6---6--4-6-----------------4-4------------------------
A|----------------------4-4-6-6-7-7-6-6-----4-4--------------------
E|----------------------------------------------2~-----------------

verso final
G|-----------------------------------------------------------------
D|-----9-9-----------------------------6-6-------------------------
A|-7h9-----9-9-9-------------------4h6-----6-6-6-------------------
E|---------------7/0-----------------------------4/0---------------

G|-----6-6---------------------------------------------------------
D|-4h6-----6-6-6---------------------------------------------------
A|---------------4/0---------------7h9-9-9-9-9-9-9/0---------------
E|-----------------------------------------------------------------

coro final
G|-----------------------------------------------------------------
D|-----------------------------------------------------------------
A|-6-6-6-6-6-6-6-6-6-6-6-6-6-6-8---3-3-3-3-3-3-3-3-3-3-3-3-3-3-3-3-
E|-----------------------------------------------------------------

G|-----------------------------------------------------------------
D|---------------------------------8-8-8-8-8-8-8-8-8-8-8-8-8-8-8-8-
A|--------/8-8-8-8--------/8-8-8-8---------------------------------
E|-1-1-1-1---------1-1-1-1-----------------------------------------

G|-------------------------8-8-8-8-----------------5-5-5-5-5-5-5-5-
D|-----------------------------------------------------------------
A|-6-6-6-6-6-6-6-6-6-6-6-6--------3-3-3-3-3-3-3-3------------------
E|-----------------------------------------------------------------

G|-----------------------------------------------------------------
D|-----------------------------------------------------------------
A|-----------------------------------------------------------------
E|-1-1-1-1-1-1-1-1-1-1-1-1-1-1-1-1-6-6-6-6-6-6-6-6-6-6-6-6-6-6-6-6

Outro
G|--8-8-8-8-7-7-7-7-5-5-5-5----------------------------------------
D|--------------------------8-8-8-8--------------------------------
A|----------------------------------6~-----------------------------
E|-----------------------------------------------------------------





Calificar esta versión:
Aviso: Este fichero es trabajo propio de su transcriptor y representa su interpretación personal de la canción. El material contenido en esta página es para exclusivo uso privado, por lo que se prohibe su reproducción o retransmisión, así como su uso para fines comerciales.
Más versiones de Glamorous Indie Rock And Roll, The Killers
Glamorous Indie Rock And Roll
tablatura
Glamorous Indie Rock And Roll
bajo
Descubre más canciones de The Killers