Boys Don´t Cry, The Cure (tablatura) (ver 2)

Autor: slash uchiha | 31754 visualizaciones



Intro

e|-------------------------------------|
B|-----3----5--------------------------|
G|-2---4----6--7----7-6-4-2------------|
D|-2---4----6--7----7-6-4-2------------|
A|-0---2----4--5----5-4-2-0------------|
E|-------------------------------------|




Lead guitar...

e|----------0------------0---0--0-2--4--5-5-5---2--0-------------|
B|-2--2--3------2--2--3-------------------------------3----------|
G|---------------------------------------------------------------|
D|---------------------------------------------------------------|
A|---------------------------------------------------------------|
E|---------------------------------------------------------------|

Verse chords 

e|---------------------------------------------------|
B|------------3-3-3-3-3-5-5-5-5-5--------------------|
G|-2-2-2-x-2--4-4-4-4-4-6-6-6-6-6-7-7-7-7-7/---------|
D|-2-2-2-x-2--4-4-4-4-4-6-6-6-6-6-7-7-7-7-7/---------|x2
A|-0-0-0-x-0--2-2-2-2-2-4-4-4-4-4-5-5-5-5-5/---------|
E|---------------------------------------------------|

Pre chorus

e|---------------------------------|
B|-5--5-5-5-5-5-x------------------|
G|-6--6-6-6-6-6-x-4-4-4-4-4-4------|
D|-6--6-6-6-6-6-x-4-4-4-4-4-4------|x4
A|-4--4-4-4-4-4-x-2-2-2-2-2-2------|
E|---------------------------------|

Chorus

e|-------------------------------------------|
B|------------3-3-3-3-3-5-5-5-5-5------------|
G|-2-2-2-x-2--4-4-4-4-4-6-6-6-6-6-7-6-4-2----|
D|-2-2-2-x-2--4-4-4-4-4-6-6-6-6-6-7-6-4-2----|x2
A|-0-0-0-x-0--2-2-2-2-2-4-4-4-4-4-5-4-2-0----|
E|-------------------------------------------|

Lead riff 

e|----------0------------0---0--0-2--4--5-5-5---2--0-------------|
B|-2--2--3------2--2--3-------------------------------3----------|
G|---------------------------------------------------------------|
D|---------------------------------------------------------------|
A|---------------------------------------------------------------|
E|---------------------------------------------------------------|

Song 

e|---------------------------------------------------------------------------|
B|-9--9--9-9--10--10-10-10-10-----------------9-9-9-9-9-7-6-4-2--------------|
G|-9--9--9-9--11--11-11-11-11------7-7-7-7-7--9-9-9-9-9-7-6-4-2--------------|
D|-9--9--9-9--11--11-11-11-11-x3---7-7-7-7-7--9-9-9-9-9-7-6-4-2--------------|
A|-7--7--7-7--9---9--9--9--9-------5-5-5-5-5--7-7-7-7-7-5-4-2-0--------------|
E|---------------------------------------------------------------------------|
  |  								
e|-7--7--7-7--9---9--9--9--9-------5-5-5-5-5--7-7-7-7-7~---------------------|
B|-9--9--9-9--10--10-10-10-10-x3---7-7-7-7-7--9-9-9-9-9~---------------------|
G|---------------------------------------------------------------------------|
D|---------------------------------------------------------------------------|
A|---------------------------------------------------------------------------|
E|---------------------------------------------------------------------------|






Calificar esta versión:
Aviso: Este fichero es trabajo propio de su transcriptor y representa su interpretación personal de la canción. El material contenido en esta página es para exclusivo uso privado, por lo que se prohibe su reproducción o retransmisión, así como su uso para fines comerciales.
Más versiones de Boys Don´t Cry, The Cure
Boys Don´t Cry
acordes
Boys Don´t Cry
tablatura
Boys Don´t Cry (ver 2)
tablatura
Descubre más canciones de The Cure