Zombie, The Cranberries (bajo)

Autor: d@vid95 | 37993 visualizaciones

bueno aqui le dejo la tabladura para bajo de zombie ojo tambien se puede usar para guitarra con las dos primeras cuerdas e6 y b

aki hay dos formas de hacer el bajo juzguenlo ustedes..

G --------------------------------------------------------------

D --------------------------------------------------------------

A ---------------3-3-3-3-3-3-5-3------------------------------

E 0-0-0-0-0-0-3-0----------------3-3-3-3-3-3-5-3-2-2-2-2-2-2-3-2



G --------------------------------------------------------------

D --------------------------------------------------------------

A ---------------3-3-3-3-3-3-5-3------------------------------

E 0-0-0-0-0-0-3-0--------------3-3-3-3-3-3-5-3-2-2-2-2-3-2-3-2-0

esta es la parte final de la cancion hay dos formas tambien se usa tambien antes de comenzar el solo de guitarra y para terminar a lo ultimo cuando suena el bajo...

A -----------------3-3-3-3-3-3-5-3------------------------------

E -0-0-0-0-0-0-3-0----------------------------------------------

A -----------------3-3-3-3-5-3-5-3------------------------------

E -0-0-0-0-0-0-3-0----------------------------------------------

repitelo cuantas veces creas que se deba repetir aki los dejo chao
Calificar esta versión:
Aviso: Este fichero es trabajo propio de su transcriptor y representa su interpretación personal de la canción. El material contenido en esta página es para exclusivo uso privado, por lo que se prohibe su reproducción o retransmisión, así como su uso para fines comerciales.
Más versiones de Zombie, The Cranberries
Zombie
acordes
Zombie (ver 2)
acordes
Zombie (ver 3)
acordes
Zombie (ver 4)
acordes
Zombie (ver 5)
acordes
Zombie (ver 6)
acordes
Zombie
tablatura
Zombie
bajo
Zombie (ver 2)
bajo
Descubre más canciones de The Cranberries