Animal Instinct, The Cranberries (acordes) (ver 4)

Autor: sonac32 | 29204 visualizaciones

am7cddoemg
Saludos gente 
aqui de new
dejandoles ahora esta rola
que igual es una de mis favoritas de esta banda =]
espero sea de su agrado =D

INTRO: Em Am7 C D [X2]

Em          Am7                     C
Suddenly something has happened to me
            D
As I was having my cup of tea
Em         Am7              C
Suddenly I was feeling depressed
        D
I was utterly and totally stressed

Em      Am7               C    D
Do you know you made me cry   uoh uoh!!
Em      Am7               C    D
Do you know you made me die
        Em                 Am7
And the thing that gets to me
            C            D
Is you'll never really see
         Em                  Am7
And the thing that freaks me out
           C             D
Is I'll always be in doubt

G         D                    C
It is a lovely thing that we have
          D
It is a lovely thing that we
G         D                C
It is a lovely thing, the animal
    D
The animal instinct

Em         Am7    C            D
Uh uh uh - uh uh uh - uh uh uh uhhh
   
   Em - Am7 - C - D
1]-------------------------------------------------|
2]-------------------------------------------------|
3]-4h5-4h5-4-5/7-7-7-5-5-5-4h5-4h5-4-5/0-0-0-2-2-2-|
4]-------------------------------------------------|
5]-------------------------------------------------|
6]-------------------------------------------------|

Em           Am7               C
So take my hands and come with me
          D
We will change reality
Em           Am7               C
So take my hands and we will pray
             D
They won't take you away
Em          Am7           C     D
They will never make me cry, nouuoo
Em        Am7             C     D
They will never make me die
        Em                 Am7
And the thing that gets to me
           C            D
Is you'll never really see
        Em                    Am7
And the thing that freaks me out
          C                D
Is I'll always be in doubt
     Em         Am7
The animal, the animal,
    C                  D
the animal instinct to me
         Em          Am7
It's the animal, the animal,
    C                   D
the animal instinct to me
         Em               Am7 
It's the animal, it's the animal,
         C                  D
it's the animal instinct to me
         Em               Am7 
It's the animal, it's the animal,
         C                  D
it's the animal instinct to me
The animal, the animal,
    C                  D
the animal instinct to me
         Em          Am7
It's the animal, the animal,
    C                   D
the animal instinct to me
   
   Em            Am7        C             D
1]--------------------------------------------------|
2]--------------------------------------------------|
3]-4h5-4h5-4-5-/7-7-7-5-5-5-4h5-4h5-4-5/0-0-0-2-2-2-|
4]--------------------------------------------------|
5]--------------------------------------------------|
6]--------------------------------------------------|

   Em          Am7         C           D
1]-------------------------------------------------|
2]-------------------------------------------------|
3]-0-0-0-2-2-2-4-4-4-2-2-2-4-4-4-2-2-2-0-0-0-2-2-2-|
4]-------------------------------------------------|
5]-------------------------------------------------|
6]-------------------------------------------------|

   Em          Am7           C             D
1]-----------------------------------------------------|
2]-----------------------------------------------------|
3]-4h5-4h5-4-5/7-7-7-/9-9-9--9-9-9-9-7-7-7-5-5-5-4-4-4-|
4]-----------------------------------------------------|
5]-----------------------------------------------------|
6]-----------------------------------------------------|

   Em          Am7         C           D...
1]-------------------------------------------------0-|
2]-------------------------------------------------0-|
3]-0-0-0-2-2-2-0-0-0-2-2-2-4-4-4-2-2-2-0-0-0-2-2-2-0-|
4]-------------------------------------------------2-|
5]-------------------------------------------------2-|
6]-------------------------------------------------0-|



by sonac32
Calificar esta versión:
Aviso: Este fichero es trabajo propio de su transcriptor y representa su interpretación personal de la canción. El material contenido en esta página es para exclusivo uso privado, por lo que se prohibe su reproducción o retransmisión, así como su uso para fines comerciales.
Más versiones de Animal Instinct, The Cranberries
Animal Instinct
acordes
Animal Instinct (ver 2)
acordes
Animal Instinct (ver 3)
acordes
Animal Instinct (ver 4)
acordes
Animal Instinct (ver 5)
acordes
Descubre más canciones de The Cranberries