Soldado, The Casualties (bajo)

Autor: maty_punx | 14529 visualizaciones

----------------------------------------
----------------------------------------
-3-----5----6-----5---1------5----3-----
----------------------------------------
x2
----------------------------------------
----5---3-------------------------------
------------5---3-----------------------
----------------------------------------

----------------------------------------
----------------------------------------
-3-----5----6-----5---1------5----3-----
----------------------------------------
x2
Oh... oh oh... oh oh... oh oh!
----------------------------------------
----------------------------------------
---3-3-3-3-3-3-5-----6-6-6-6-6-6-5------
----------------------------------------

----------------------------------------
----------------------------------------
---------------5---3-3-3-3-3-3-3-3------
---6-6-6-6-6-6--------------------------

Se repite lo ultimo hasta k se termine la canción.
Calificar esta versión:
Aviso: Este fichero es trabajo propio de su transcriptor y representa su interpretación personal de la canción. El material contenido en esta página es para exclusivo uso privado, por lo que se prohibe su reproducción o retransmisión, así como su uso para fines comerciales.
Más versiones de Soldado, The Casualties
Soldado
tablatura
Soldado
bajo
Descubre más canciones de The Casualties