Believe, The Bravery (bajo)

Autor: fherxo | 29516 visualizaciones



INTRO
G|--8--6--------------------6-------------|
D|--------8--6--8--8--6--8-----8--6-------|   X3
A|-----------------------------------8--8-|
E|----------------------------------------|

G|--8--6--------------------6-------------|
D|--------8--6--8--8--6--8-----8--6-------|
A|-----------------------------------6--6-|
E|----------------------------------------|

G|--8--6--------------------6-------------|
D|--------8--6--8--8--6--8-----8--6-------|
A|-----------------------------------8--8-|
E|----------------------------------------|

G|--8--6--------------------6-------------------|
D|--------8--6--8--8--6--8-----8--6--------8~~~-|
A|-----------------------------------6--6-------|
E|----------------------------------------------|

VERSE
G|------------6-------------|
D|8--8--6--8-----8--6-------|
A|---------------------8--8-|
E|--------------------------|

G|--8--6-----------------6-------------|
D|--------8--6--6--6--8-----8--6-------|
A|--------------------------------6--6-|
E|-------------------------------------|

G|--8--6--------------------6-------------|
D|--------8--6--8--8--6--8-----8--6-------|
A|-----------------------------------8--8-|
E|----------------------------------------|

G|--8--6-----------------6-------------|
D|--------8--6--6--6--8-----8--6-------|
A|--------------------------------6--6-|
E|-------------------------------------|

G|--8--6----------------------------------------|
D|--------8--6--8-8-8-8---------6-6-6-6---------|
A|----------------------8-8-8-8---------6-6-6-6-|
E|----------------------------------------------|

G|--8--6--------------------6-------------|
D|--------8--6--8--8--6--8-----8--6-------|
A|-----------------------------------8--8-|
E|----------------------------------------|

G|--8--6--------------------6-------------------|
D|--------8--6--8--8--6--8-----8--6--------8~~~-|
A|-----------------------------------6--6-------|
E|----------------------------------------------|

G|------------6-------------|
D|8--8--6--8-----8--6-------|
A|---------------------8--8-|
E|--------------------------|

G|--8--6-----------------6-------------|
D|--------8--6--6--6--8-----8--6-------|
A|--------------------------------6--6-|
E|-------------------------------------|

G|--8--6--------------------6-------------|
D|--------8--6--8--8--6--8-----8--6-------|
A|-----------------------------------8--8-|
E|----------------------------------------|

G|--8--6-----------------6-------------|
D|--------8--6--6--6--8-----8--6-------|
A|--------------------------------6--6-|
E|-------------------------------------|

G|--8--6----------------------------------------|
D|--------8--6--8-8-8-8---------6-6-6-6---------|
A|----------------------8-8-8-8---------6-6-6-6-|
E|----------------------------------------------|

G|--8--6--------------------6-------------|
D|--------8--6--8--8--6--8-----8--6-------|
A|-----------------------------------8--8-|
E|----------------------------------------|

G|--8--6--------------------6-------------------|
D|--------8--6--8--8--6--8-----8--6--------8~~~-|
A|-----------------------------------6--6-------|
E|----------------------------------------------|


CHORUS
G|----------------------------------|
D|----------------------------------|    X4
A|----------3-3-3-3-----------------|
E|--5-5-5-5---------4-4-4-4-3-3-3-3-|


VERSE 2
G|------------6-------------|
D|8--8--6--8-----8--6-------|
A|---------------------8--8-|
E|--------------------------|

G|--8--6--------------------6-------------------|
D|--------8--6--8--8--6--8-----8--6--------8~~~-|
A|-----------------------------------6--6-------|
E|----------------------------------------------|

G|------------6-------------|
D|8--8--6--8-----8--6-------|
A|---------------------8--8-|
E|--------------------------|

G|--8--6-----------------6-------------|
D|--------8--6--6--6--8-----8--6-------|
A|--------------------------------6--6-|
E|-------------------------------------|

G|--8--6--------------------6-------------|
D|--------8--6--8--8--6--8-----8--6-------|
A|-----------------------------------8--8-|
E|----------------------------------------|

G|--8--6-----------------6-------------|
D|--------8--6--6--6--8-----8--6-------|
A|--------------------------------6--6-|
E|-------------------------------------|

G|--8--6----------------------------------------|
D|--------8--6--8-8-8-8---------6-6-6-6---------|
A|----------------------8-8-8-8---------6-6-6-6-|
E|----------------------------------------------|

G|--8--6--------------------6-------------|
D|--------8--6--8--8--6--8-----8--6-------|
A|-----------------------------------8--8-|
E|----------------------------------------|

G|--8--6--------------------6-------------------|
D|--------8--6--8--8--6--8-----8--6--------8~~~-|
A|-----------------------------------6--6-------|
E|----------------------------------------------|


CHORUS
G|----------------------------------|
D|----------------------------------|    X4
A|----------3-3-3-3-----------------|
E|--5-5-5-5---------4-4-4-4-3-3-3-3-|


SOLO/ SAME AS CHORUS
G|----------------------------------|
D|----------------------------------|    X2
A|----------3-3-3-3-----------------|
E|--5-5-5-5---------4-4-4-4-3-3-3-3-|


>>

CHORUS/OUTRO
G|----------------------------------|
D|----------------------------------|    X9
A|----------3-3-3-3-----------------|
E|--5-5-5-5---------4-4-4-4-3-3-3-3-|

G|-------------------|
D|-------------------|
A|-------------------|
E|--5~~~~~~~~~~~~~~~~





Calificar esta versión:
Aviso: Este fichero es trabajo propio de su transcriptor y representa su interpretación personal de la canción. El material contenido en esta página es para exclusivo uso privado, por lo que se prohibe su reproducción o retransmisión, así como su uso para fines comerciales.
Más versiones de Believe, The Bravery
Believe
tablatura
Believe
bajo
Descubre más canciones de The Bravery