Luto En Mi Alma, Terrícolas (tablatura)

Autor: Anónimo | 17720 visualizaciones

Bueno faltaba un intro de esta cancion AND.
 Bueno Disfrutenlo

Intro
    C                                 Am
E-0---------------------------------------------------------------------T
B-1--------------------1--------------1--------------1-------------3----e
G-0-----------------2--------------2--------------2-------------4-------c
D-2--------------3---------3----2---------2----3---------3---5--------5-o
A-3--3--2--1------------------------------------------------------------u
E-0---------------------------------------------------------------------2


      C
E-0-----------------------------------0---3---1------0-1---3-----------T
B-1---------1--0----------0--1--------1---5---3----3-----3-------------e
G-0-------0-------------0----------0-----------------------------------c
D-2-----2-------------2------------------------------------------------o
A-3--------------------------------------------------------------------u
E-0--------------------------------------------------------------------2


      C
E-------------1-----0-----0----1---3---------------------T
B-------3-----3-----1--3---------3-----------------------e
G----0--4------------------------------------------------c
D--------------------------------------------------------o
A--------------------------------------------------------u
E--------------------------------------------------------2

      C
E----------0---3---1------0-1---3-------------1---0------------------T
B----------1---5---3----3-----3------------3--3---1------------------e
G-------0------------------------------0---4------0------------------c
D-------------------------------------------------2------------------o
A-------------------------------------------------3------------------u
E-------------------------------------------------0------------------2
Calificar esta versión:
Aviso: Este fichero es trabajo propio de su transcriptor y representa su interpretación personal de la canción. El material contenido en esta página es para exclusivo uso privado, por lo que se prohibe su reproducción o retransmisión, así como su uso para fines comerciales.
Más versiones de Luto En Mi Alma, Terrícolas
Luto En Mi Alma
acordes
Luto En Mi Alma
tablatura
Descubre más canciones de Terrícolas