Dos Cosas, Terrícolas (tablatura)

Autor: Anónimo | 19947 visualizaciones

Aquí va esta tablatura correcta de la canción “Dos Cosas” de Los Terrícolas, esta en Si menor.

Al comenzar la parte hablada lleva un arpegio en Bm dos veces, 
después en A dos veces (improvísenlo , no tiene dificultad alguna) y luego viene el intro. 

Intro

E-----------------------------------------------------------
B-------------8/7-----------7—5----------5—3----------------
G---9------9------9-11----7------7/9---5------5-4-5p4----4--
D-9-----9---------------7------------5-----------------7----
A-----------------------------------------------------------
E-----------------------------------------------------------


Después dice:

Te engañe te creí arrepentida... (aquí tocas arpegio en Bm)
Pero Todo Cambia en Esta vida... (aquí tocas arpegio en Bm)

Cuando dice: “...Con tu orgullo partido en pedazos...” y “...
La mentira te trajo a mis brazos...” tocas:

E-----------------------------
B---5/7/5----2/5/3—2----3-----
G---------------------4---4---
D-----------------------------
A-----------------------------
E-----------------------------

En el coro se toca esto (Escuchen la grabación para el tiempo):

CORO (x2)Toca eso 2 veces:

E---------------------------------------------2--
B—5/7/5—-3—-2—-3/5/3---2-----2/3/2--------3/5----
G-------------------------4------------4---------
D-----------------------------------4------------
A------------------------------------------------
E------------------------------------------------


SOLO

Tocas el intro y le agregas:

E—17b-15----15--------17-15---------------------------------
B--------18----18-15--------18v-15--------18-15-------------
G-----------------------------------19-17------17-15-17p15--
D-----------------------------------------------------------
A-----------------------------------------------------------
E-----------------------------------------------------------

E-------------------------
B--------------------17---
G---17/19-18---18h19------
D-------------------------
A-------------------------
E-------------------------

OUTRO

E---16-14-------16-14-12----14-12-------14-12-11----11h12p11-
B-12------11h12----------16-------11h12----------14----------
G------------------------------------------------------------
D------------------------------------------------------------
A------------------------------------------------------------
E------------------------------------------------------------

E-11-12-14-16-17---16p14—16--
B----------------------------
G----------------------------
D----------------------------
A----------------------------
E----------------------------

Listo. Las partes de los versos llevan los acordes Bm y A arpegiados, 
ensayen y sale súper bien la rola. Dedicada a todos los Románticos, 
especialmente a mi Papa Mario Ruiz que disfruta mucho está música.
Desde Monterrey
Su Amigo
Jesús Ruiz
Calificar esta versión:
Aviso: Este fichero es trabajo propio de su transcriptor y representa su interpretación personal de la canción. El material contenido en esta página es para exclusivo uso privado, por lo que se prohibe su reproducción o retransmisión, así como su uso para fines comerciales.
Más versiones de Dos Cosas, Terrícolas
Dos Cosas
acordes
Dos Cosas
tablatura
Descubre más canciones de Terrícolas