The Metal, Tenacius D (tablatura)

Autor: slash5566 | 17479 visualizaciones

intro    
e----------------------------------------------------------------
b----------------------------------------------------------------
g----------------------------------------------------------------
D----------------------------------------------------------------
A-----------320-2-0-2-3-2-0------------320-2---------------------
B-0-00-3-00------------------0-00-3-00---------------------------


e----------------------------------------------------------------
b----------------------------------------------------------------
g----------------------------------------------------------------
D----------------------------------5---3232-0-232-0--------------
A-----------320-2-0-2-3-2-0-----3--------------------------------
B-0-00-3-00------------------1-----------------------------------




                       comenten XDXDXD
Calificar esta versión:
Aviso: Este fichero es trabajo propio de su transcriptor y representa su interpretación personal de la canción. El material contenido en esta página es para exclusivo uso privado, por lo que se prohibe su reproducción o retransmisión, así como su uso para fines comerciales.