Master Explorer, Tenacious D (tablatura)

Autor: nachulon | 40666 visualizaciones

e---------------------------
b--------------------------- 
g---------------------------    X TODA LA CANCION MENOS EL    
d--999999999---------7------       FINAL
a--777777777---555---5---7--
e--------------333-------5--

 FINAL
e---------------------------------------
b---------------------------------------  
g---------------------------------------    NO SE CUANTAS    
d--999-------777-------333--------------   VECES X K ME DA LATA
a--777--999--555--777--555--333--3--2--2   VER
e-------777-------555-------555--5--4--0

  MUCHAS GRACIAS COMENTEN Y CALIFIKEN BN
Calificar esta versión:
Aviso: Este fichero es trabajo propio de su transcriptor y representa su interpretación personal de la canción. El material contenido en esta página es para exclusivo uso privado, por lo que se prohibe su reproducción o retransmisión, así como su uso para fines comerciales.
Más versiones de Master Explorer, Tenacious D
Master Explorer
acordes
Master Explorer
tablatura
Descubre más canciones de Tenacious D