Master Exploder, Tenacious D (tablatura)

Autor: rockdaniel | 27887 visualizaciones

|This part is played all through  |
E||-------|-------|---------|-------|---------12------12---------------|
B||-------|-------|---------|-------|------------12---------15p-12-----|
G||-------|-------|---------|-------|--14b-------------------------14--|
D||99999xx|-------|7---9----|-------|----------------------------------|
A||77777xx|5555xx-|5-7-7----|-------|----------------------------------|
E||-------|3333xx-|--5------|-------|----------------------------------|


   E    E   E   E   E   E    S   S  E       Q      S  E   Q     S   S  E   
----------------------------------------|---------12-----12---------------|
----------------------------------------|------------12--------15p-12-----|
--14b--14--12------12--14b--14p-12-14b--|--14b------------------------14--|
---------------14-----------------------|---------------------------------|
----------------------------------------|---------------------------------|
----------------------------------------|---------------------------------|




S S S S S S S S S S S S S S S S ---x-15----15-17p-15----15-17p-15----15-17p-15----15-| --------17-----------17-----------17-----------17----| -----------------------------------------------------| -----------------------------------------------------| -----------------------------------------------------| -----------------------------------------------------| Q S S S S S S S S S S S S ---------17p-15------------15-17p-15------------15-| --15b-----------17p-15h-17-----------17p-15h-17----| ---------------------------------------------------| ---------------------------------------------------| ---------------------------------------------------| ---------------------------------------------------| S S S S S S S S S S S S E --17p-15------------15-17p-15------------15------| ---------17p-15h-17-----------17p-15h-17----12\--| -------------------------------------------------| -------------------------------------------------| -------------------------------------------------| -------------------------------------------------|

Comentarios del colaborador: comenten !!!!!

Calificar esta versión:
Aviso: Este fichero es trabajo propio de su transcriptor y representa su interpretación personal de la canción. El material contenido en esta página es para exclusivo uso privado, por lo que se prohibe su reproducción o retransmisión, así como su uso para fines comerciales.
Más versiones de Master Exploder, Tenacious D
Master Exploder
acordes
Master Exploder (ver 2)
acordes
Master Exploder
tablatura
Descubre más canciones de Tenacious D