Kickapoo, Tenacious D (tablatura)

Autor: elvicho | 19240 visualizaciones

e|-3-3p53-----6------------------------|Dio can you hear me?
b|--0----0-0---3p43--1-1p31-----4-4p64-|i'am lost...
g|0-------0-03-----3--2----2-2---5----5|
d|------------------3-------3-36-------|
a|-------------------------------------|
e|-------------------------------------|

e|-3-3p53-----6------------------------|I need a thight..
b|--0----0-0---3p43--1-1p31-----4-4p64-|
g|0-------0-03-----3--2----2-2---5----5|
d|------------------3-------3-36-------|
a|-------------------------------------|
e|-------------------------------------|

e|-3-3p53------6--------------------|Rock is not the...
b|--0----0-0----3p43--1-1p31----4444|
g|0-------0-03------3--2----2-2-5555|
d|-------------------3-------3-36666|
a|----------------------------------|
e|----------------------------------|
Calificar esta versión:
Aviso: Este fichero es trabajo propio de su transcriptor y representa su interpretación personal de la canción. El material contenido en esta página es para exclusivo uso privado, por lo que se prohibe su reproducción o retransmisión, así como su uso para fines comerciales.
Más versiones de Kickapoo, Tenacious D
Kickapoo
acordes
Kickapoo
tablatura
Descubre más canciones de Tenacious D