Beelzeboss, Tenacious D (tablatura)

Autor: vizcarra1 | 31531 visualizaciones

g|-4-XXX-X-X-5-XXX-X-X-7-XXX-X-X-9-XXX-X-X-
D|-4---------5---------7---------9---------
A|-2---------3---------5---------7---------
E|-----------------------------------------

|-/11-XXX-X-X-|-12-XXX-X-X-X-/14-XXX-X-X-X|
|-/11---------|-12-----------/14----------|
|-/9----------|-10-----------/12----------|
|-------------|---------------------------|

-/15-----------------|AGUNOS RASGUEOS
-/15-----------------|EN ESTA PARTE
-/13-----------------|
---------------------|

1ra parte:

(todo esto va con la letra de la 1ra parte)
g|-8\7--XXX-X-X-|    |-8\7--|  |-XXX-X-X-|
D|-8\7--XXX-X-X-| X2 |-8\7--|X4|-XXX-X-X-| X2
A|-6\5--XXX-X-X-|    |-6\5--|  |-XXX-X-X-| Y TERMINA CON :A#5-A5-
E|--------------|    |------|  |---------|G5-D#5


I am complete!	
(both) fuuuck
Yes, you are fucked,
Shit out of luck!
Now i'm complete and my cock you will suck!
This world will be mine,
And your first in line!
You brought me the pick and now you shall both die!

2da parte:
Fuck! fuck!
g|------------| SLIDE POR 
D|---9\-------| todo el 
A|---9\-------| mastil X2	
E|---7\-------|

B5           D5    F#5        B5
Fuuuck, the demon code prevents me
         D5         F#5        B5
From declining a rock off challenge!
D5     F       A
What are your terms?
              E
What's the caaash?

3RA PARTE:

Fine!           Let the rock off begin hahaha

g|-(4)-XXX-|        |-5-4--7-6--9-8--12-11--|
D|-(4)-----|X4      |-5-4--7-6--9-8--12-11--|
A|-(2)-----|        |-3-2--5-4--7-6--10-9---|
E|---------|        |-----------------------|


I'm the devil,I love metal!
|-5-4--7-6--9-8--12-11--| |-(4)-XXX-|
|-5-4--7-6--9-8--12-11--| |-(4)-----|X4
|-3-2--5-4--7-6--10-9---| |-(2)-----|
|-----------------------| |---------|
Check this riff,It's fuckin' tasty!
|-5-4--7-6--9-8--12-11--|
|-5-4--7-6--9-8--12-11--|
|-3-2--5-4--7-6--10-9---|
|-----------------------|
SOLO:


e|---------7--------------7------------------------|
b|--------7--7-7h10h7h10---10h7----7-----------12~~|
g|--10b11-----------------------10---9h7--7h9------|
D|---------------------------------------9---------|



B5
I'm the devil i can do what i want
D5
Whatever i've got i'm gonna flaunt!
F#5
There's never been a rock off that i've ever lost!
|-(4)-XXX-|
|-(4)-----|X4
|-(2)-----|
|---------|

B5
I cannot wait to take kage back to hell
D5
I'm gonna fill him with my hot demon gel!
F#5
I'll make him squeal like the scarlet pimpernel!!
|-(4)-XXX-|
|-(4)-----|X4
|-(2)-----|
|---------|
Calificar esta versión:
Aviso: Este fichero es trabajo propio de su transcriptor y representa su interpretación personal de la canción. El material contenido en esta página es para exclusivo uso privado, por lo que se prohibe su reproducción o retransmisión, así como su uso para fines comerciales.
Más versiones de Beelzeboss, Tenacious D
Beelzeboss
acordes
Beelzeboss
tablatura
Descubre más canciones de Tenacious D