Ella, Tan Bionica (tablatura)

Autor: luoskcor | 33551 visualizaciones



Ella ? Tan Biónica

Bueno, estaba aburrido y me puse a escuchar esta canción que me gusta mucho. Al rato agarre y la aprendí pero no encontré ninguna tablatura, así que saqué las partes más ?complicadas? por así decirlo.
Espero que les sirva y bueno, ahí va. Ah, fíjense en donde va cada parte y cuantas veces se repite.




Riff Intro

|-------------------------------------------------------------|
|------------------------------8-8--7-7-7?5h7p5---------------|
|-----7---7-7?7--6h7p6-7----/7-------------------7------------|
|--/9---9-----------------------------------------------------|
|-------------------------------------------------------------|
|-------------------------------------------------------------|





Guitarra de fondo durante el primer verso

|-------------------------------------------------------------|
|-------------------------------------------------------------|
|------11-11~-------11-11~-----7-7-6?--6h7p6--9-7?--6h7-------|
|-9-9~---------9-9~-------------------------------------------|
|-------------------------------------------------------------|
|-------------------------------------------------------------|





Solo

(Igual que la intro pero en vez de hacer ?6h7p6-7? hace, en la misma cuerda, ?9h11p9-11?)
Fíjense que el hammer-on y el pull-off se pueden hacer con bends.





Guitarra de fondo en el segundo verso
|-------------------------------------------------------------|
|-------------------------------------------------------------|
|-------------------------------------------------------------|
|-------------------------------------------------------------|
|-------------------------------------------------------------|
|--7--9-----10--12------10--9------7--5-----------------------|



Bueno, las otras partes son todas fáciles y se sacan con los acordes. Personalmente me gusta más tocarlo con acordes quintas o ?power chords?. Busquen los acordes y la canción se puedes seguir fácil. Esta es la primer tablatura que posteo asi que si hay alguna duda solo comenten. Espero que les sirva y... surte. \m/





Calificar esta versión:
Aviso: Este fichero es trabajo propio de su transcriptor y representa su interpretación personal de la canción. El material contenido en esta página es para exclusivo uso privado, por lo que se prohibe su reproducción o retransmisión, así como su uso para fines comerciales.
Más versiones de Ella, Tan Bionica
Ella
acordes
Ella (ver 2)
acordes
Ella (ver 3)
acordes
Ella
tablatura
Ella (ver 2)
tablatura
Descubre más canciones de Tan Bionica