Arruinarse, Tan Bionica (tablatura)

Autor: agustinaguchi | 46474 visualizaciones



E:-5-----5--4------5--2------2------------
B:--5--2------5--2------2------3--2--3--5-
G:------------------------2---------------
D:----------------------------------------
A:----------------------------------------
E:----------------------------------------

E:-5-----5--4------5--2------2------------
B:--5--2------5--2------2------3--2--3--5-
G:------------------------2---------------
D:----------------------------------------
A:----------------------------------------
E:----------------------------------------

E:-2---2-------2--------------------------
B:--2---5--2-----3--2--3--2--3--2--3--5---
G:---2-------2----------------------------
D:----------------------------------------
A:----------------------------------------
E:----------------------------------------

E:-5-----5--4------5--2-------------------
B:--5--2------5--2------------------------
G:----------------------------------------
D:----------------------------------------
A:----------------------------------------
E:----------------------------------------





Calificar esta versión:
Aviso: Este fichero es trabajo propio de su transcriptor y representa su interpretación personal de la canción. El material contenido en esta página es para exclusivo uso privado, por lo que se prohibe su reproducción o retransmisión, así como su uso para fines comerciales.
Más versiones de Arruinarse, Tan Bionica
Arruinarse
acordes
Arruinarse (ver 2)
acordes
Arruinarse (ver 3)
acordes
Arruinarse
tablatura
Arruinarse
teclado
Descubre más canciones de Tan Bionica