Chop Suey!, System Of A Down (tablatura) (ver 3)

Autor: Aragon7117 | 39032 visualizaciones



Intro 
------------------------------------------------------------------------------||
------------------------------------------------------------------------------||
-5-5-5-5-5-5-5-5-5-5-5/7-7-7-7-7-7-7-7-7-7--2-2-2-2-2-2-2-2--0-0-0-0-0-0-0-0--||
-7-7-7-7-7-7-7-7-7-7-7/9-9-9-9-9-9-9-9-9-9--3-3-3-3-3-3-3-3--1-1-1-1-1-1-1-1--||
-0-0-0-0-0-0-0-0-0-0-0/0-0-0-0-0-0-0-0-0-0-—0-0-0-0-0-0-0-0—-0-0-0-0-0-0-0-0--||
------------------------------------------------------------------------------||

Intro 
|-------------------------------------------------------------------||
|-------------------------------------------------------------------||
|--5---5---5----7---7---7----2---2---2----0---0---0-----------------||
|----7---7---7----9---9---9----3---3---3----1---1---1---------------||
|-------------------------------------------------------------------||
|-------------------------------------------------------------------||







Calificar esta versión:
Aviso: Este fichero es trabajo propio de su transcriptor y representa su interpretación personal de la canción. El material contenido en esta página es para exclusivo uso privado, por lo que se prohibe su reproducción o retransmisión, así como su uso para fines comerciales.
Más versiones de Chop Suey!, System Of A Down
Chop Suey!
tablatura
Chop Suey! (ver 2)
tablatura
Chop Suey! (ver 3)
tablatura
Chop Suey! (ver 4)
tablatura
Descubre más canciones de System Of A Down