B.y.o.b., System Of A Down (tablatura) (ver 4)

Autor: MA666OT | 31632 visualizaciones



E--------------------------------|
B--------------------------------|
G--------------------------------|
D--------------------------------|
A--------------------------------|
E--3--2--0--2--3--2--0--2--------|
    X  X  X  X  X  X   X   X

E-----------------------------------------------------------------|
B-----------------------------------------------------------------|
G-----------------------------------------------------------------|
D--6/2-2-2---2-2-2/6-6-6--6-----6/2-2-2--2-2--6-6-6-6-------------|
A--6/2-2-2---2-2-2/6-6-6--6-----6/2-2-2--2-2--6-6-6-6-------------|
E--6/2-2-2---2-2-2/6-6-6--6-----6/2-2-2--2-2--6-6-6-6-------------|
                                                   X X X X

E----------------------------------------------------------------|
B----------------------------------------------------------------|
G----------------------------------------------------------------|
D----------------------------------------------------------------|
A---3-2-0-2--3-2-0--3-2-0---3------------------------------------|
E---3-2-0-2--3-2-0--3-2-0---3---14-15-14-12-10-9-7-6-------------|


E----------------------------------------------------------------------|
B----------------------------------------------------------------------|
G----------------------------------------------------------------------|
D----------------------------------------------------------------------|
A---3-2-0-2--3-2-0--3-2-0---3------------------------------------------|
E---3-2-0-2--3-2-0--3-2-0---3---14-15-18-19-18h19-15-14-12-------------|

E----------------------------------------------------------------|
B----------------------------------------------------------------|
G----------------------------------------------------------------|
D----------------------------------------------------------------|
A---3-2-0-2--3-2-0--3-2-0---3------------------------------------|
E---3-2-0-2--3-2-0--3-2-0---3---14-15-14-12-10-9-7-6-------------|

E--------------------------------------------------------------------------|
B--------------------------------------------------------------------------|
G--------------------------------------------------------------------------|
D--------------------------------------------------------------------------|
A---3-2-0-2--3-2-0--3-2-0---3----------------------------------------------|
E---3-2-0-2--3-2-0--3-2-0---3--14-15-18-19-18-15-14-15-14-12-10-9-7-9-7-5--|

E-------------------------------------------------|
B-------------------------------------------------|
G-------------------------------------------------|
D--2-2-2-2-2-2-2-2-2--2-2--2-2-2------------------|
A--2-2-2-2-2-2-2-2-2--2-2--2-2-2------------------|
E--2-2-2-2-2-2-2-2-2--2-2--2-2-2------------------|
                                        X  X X X



E----------------------------------|
B----------------------------------|
G----------------------------------|
D----------------------------------|
A----------------------------------|
E-14-15-14-12-10-9-7-6-------------|
  X X X X X X X X X X

E-----------------------------------------|
B-----------------------------------------|
G-----------------------------------------|
D-----------------------------------------|
A---3-2-0-2--3-2-0--3-2-0---3-------------|
E---3-2-0-2--3-2-0--3-2-0---3-------------|





Calificar esta versión:
Aviso: Este fichero es trabajo propio de su transcriptor y representa su interpretación personal de la canción. El material contenido en esta página es para exclusivo uso privado, por lo que se prohibe su reproducción o retransmisión, así como su uso para fines comerciales.
Más versiones de B.y.o.b., System Of A Down
B.y.o.b.
tablatura
B.y.o.b. (ver 2)
tablatura
B.y.o.b. (ver 3)
tablatura
B.y.o.b. (ver 4)
tablatura
Descubre más canciones de System Of A Down