No Tan Distintos, Sumo (bajo)

Autor: Anónimo | 17483 visualizaciones



Pista: 2
Tiempo: 02'41"


Intro (00'00")
G|------------------------------------|
D|------------------------------------|
A|------------------------------------|
E|-3--------5--------7----------------|

(00'05")
G|------------------------------------|
D|----------------2--4-4------4-4-----|
A|-----2-5--2---4--------5-2------5-2-|
E|-3-3--------5-----------------------| (X4)

People moving every day... (00'27")
G|-----------------------4------------|
D|---------4-----2-5-2-5--------------|
A|-2---5-------5----------------------|
E|------------------------------------|

do they know why they are goning?... (00'32")
G|------------------------------------------|
D|-----------2------2------------4--------4-|
A|-0-0--0--4---0-4-----0---0-2-2----0-2-2---|
E|------------------------------------------|

look into the book of rules... (00' 38")
G|---------------------0h2h4----------|
D|---------4-----2-5-2----------------|
A|-2---5-------5----------------------|
E|------------------------------------|

are you all that different... (00'43")
G|------------------------------------------|
D|-----------2------2------------4--------4-|
A|-0-0--0--4---0-4-----0---0-2-2----0-2-2---|
E|------------------------------------------|

Repite la secuencia durante todo el tema con algunas variaciones

Espero que lo disfruten creo que esta bien pero no
esta perfecto porque no soy Arnedo soy Tomás. Saludos.
                                   Tomás A.L.





Calificar esta versión:
Aviso: Este fichero es trabajo propio de su transcriptor y representa su interpretación personal de la canción. El material contenido en esta página es para exclusivo uso privado, por lo que se prohibe su reproducción o retransmisión, así como su uso para fines comerciales.
Más versiones de No Tan Distintos, Sumo
No Tan Distintos
acordes
No Tan Distintos
tablatura
No Tan Distintos
bajo
Descubre más canciones de Sumo