Hola Frank, Sumo (bajo)

Autor: Anónimo | 46251 visualizaciones



bueno el tema empieza con la viola sola haciendo:

Hello Frank, how you doing...

E-5-5-----2-2---------------------
A-----7-7-----4-4-2-2-----7-7-----
G---------------------4-4-----9-9-

Dos vueltas y entra el bajo, con la base para casi todo el tema

E-5-5---5-4-2-0-2-2---------------------
A-----7-------------4-2-0-2-2-4---4---4-
D-------------------------------2---2---
G---------------------------------------

hasta el estribo

Your mum said you weren't home...

E-5--5--5--5--------------------------------------
A-------------5--5--5--5--7--7--7--7--5--5--5--5--
D--7--7--7--7-------------------------------------
G--------------7--7--7--7--9--9--9--9--7--7--7--7-

El tema es facil, cualquier duda, correcion o comentario, 
kotonete69@yahoo.com.ar





Calificar esta versión:
Aviso: Este fichero es trabajo propio de su transcriptor y representa su interpretación personal de la canción. El material contenido en esta página es para exclusivo uso privado, por lo que se prohibe su reproducción o retransmisión, así como su uso para fines comerciales.
Más versiones de Hola Frank, Sumo
Hola Frank
tablatura
Hola Frank
bajo
Descubre más canciones de Sumo